» » »

Tallman, Iodine Tabs (ver.1)

Artists:  A B C D E F G H I J K L M N O P Q R S T U V W X Y Z # 

Iodine Tabs (ver.1)

Tallman Tabs
 Rating:
4/5 (4 votes)
Iodine lessons Tabs too difficult? Try these video lessons and learn fast
                verse
e(---------)
b(---------)
g(---------)
d(--3-3330-)
a(--3-3330-)
D(--3-3330-)

verse(lead)
e(---------------------------------------------------------)
b(--5-5553-2/3-3-3/5-5-5------5-5553-2/3-3-3/5-5-5/8-888---)
g(-----------------------4445----------------------------7-)
d(---------------------------------------------------------)
a(---------------------------------------------------------)
D(---------------------------------------------------------)

pre-chorus
e(--------------33---------------------)
b(--0h1-1-3p1-1----1-1p0---------------)
g(-----------------------4/2-2-2-44442-)
d(-------------------------------------)
a(-------------------------------------)
D(-------------------------------------)

chorus
e(----------------------------)
b(----------------------------)
g(--------------------2----77-)
d(--5/7-87-57-7777-53-2-00-77-)
a(--5/7-87-57-7777-53-0-00-55-)
D(--5/7-87-57-7777-53---00----)

post-chorus    x3
e(-------------------------------------)
b(-------------------------------------)
g(--7-7775------------2222222255555555-)
d(--7-7775-3-3-33-3-3-2222222255555555-)
a(--5-5553-3-3-33-3-3-0000000033333333-)
D(---------3-3-33-3-3------------------)

post-chorus(lead)x3
e(--------)
b(--------)
g(--5-355-)
d(--------)
a(--------)
D(--------)

bridge
e(--------------------------------------)
b(--------------------------------------)
g(--7-7775-------5-7-54-555479-99-5-4-2-)
d(--7-7775-3-7-5-5-7-54-555479-99-5-4-2-)
a(--5-5553-3-7-5-3-5-32-333257-77-3-2-0-)
D(---------3-7-5------------------------)

bridge continued
e(---------------------------------------------------------------------)
b(---------------------------------------------------------------------)
g(---------------------------------------------------------------------)
d(--0-5-7-5/7-7775-0-5-7-5/7-7-995-0-5-7-05/7-7777/5-------------------)
a(---------------------------------------------------7-5-5-3-3-1-2-0-0-)
D(---------------------------------------------------------------------)

bridge(lead)
e(--------------------)(--------------------------)
b(--11-11-11-1-1-1-11-)(--15-------15-------13-15-)
g(--22-22-22-2-2-2-22-)(-----12-14----12-14-------)
d(--22-22-22-2-2-2-22-)(--------------------------)
a(--------------------)(--------------------------)
D(--------------------)(--------------------------)

solo x2
e(-----------------------------------------------)
b(-----------15-16-15-13-15-13-15-13-15-13-12-10-)
g(--14-17-19-------------------------------------)
d(-----------------------------------------------)
a(-----------------------------------------------)
D(-----------------------------------------------)

solo continued
e(------------------------------------------------------)
b(--------15-16-15-15-15-13-16-16-16-15-15-16-16-16b-15-)
g(--14-17-----------------------------------------------)
d(------------------------------------------------------)
a(------------------------------------------------------)
D(------------------------------------------------------)
            
Submit corrections

comments powered by Disqus
↑ Back to top | Tallman Tabs for Iodine. Lyrics for acoustic guitar and electric guitar. Tablatures and chords are parodies/interpretations of the original songs. You may use it for private study, scholarship, research or language learning purposes only