» » »

Talk Talk, RenéE Bass tabs (ver.1)

Artists:  A B C D E F G H I J K L M N O P Q R S T U V W X Y Z # 

RenéE Bass tabs (ver.1)

Talk Talk Tabs
Rating:
0/5 (0 votes)
RenéE lessons Tabs too difficult? Try these video lessons and learn fast
                


Standard tuning: G D A E

Intro

G|----------------|----------------|-9--------------|-7--------------|
D|--------------9-|-7--------------|----------------|----------------|
A|--0-------------|----------------|-8--------------|-8--------------|
E|----------------|----------------|----------------|----------------|

G|----------------|-----------9--7-|----------------|----------------|
D|-----9--7-------|--------7--10-9-|-10-------------|----------------|
A|--0---------7---|----------------|-8--------------|----------------|
E|--------------5-|-5--------------|----------------|----------------|

Verse

G|----------------|----------------|-9--------------|-7--------------|
D|--------------9-|-7--------------|----------------|----------------|
A|--0-------------|----------------|-8--------------|-8--------------|
E|----------------|----------------|----------------|----------------|

G|----------------|----------------|----------------|----------------|
D|-----9--7-------|----------------|-10-------------|----------------|
A|--0--------7----|----------------|-8--------------|----------------|
E|--------------5-|-5--------------|----------------|----------------|

G|----------------|----------------|-9--------------|-7--------------|
D|--------------9-|-7--------------|----------------|----------------|
A|--0-------------|----------------|-8--------------|-8--------------|
E|----------------|----------------|----------------|----------------|

G|----------------|-----------9--7-|----------------|----------------|
D|-----9--7-------|--------7--10-9-|-10-------------|----------------|
A|--0--------7----|----------------|-8--------------|-8--8--\7-------|
E|--------------5-|-5--------------|----------------|----------------|

Chorus

G|----------------|--------------9/|----------5-----|-------4/5-4----|
D|-------7--9--10-|-------5--7-----|-------3--------|--------------5-|
A|----7-----------|----5-----------|----3-----------|----3-----------|
E|-5--------------|-3--------------|-1--------------|-1--------------|


G|-----7----------|-------9--------|-----7----------|-------9--------|
D|---7---7-----7--|-----9----9-----|---7---7-----7--|-----9----9-----|
A|-5--------5-----|---7---------7--|-5--------5-----|---7---------7--|
E|----------------|-0--------------|----------------|-0--------------|


G|----------------|--------------9/|----------5-----|-------4/5-4----|
D|-------7--9--10-|-------5--7-----|-------3--------|--------------5-|
A|----7-----------|----5-----------|----3-----------|----3-----------|
E|-5--------------|-3--------------|-1--------------|-1--------------|


G|-----7----------|-------9--------|-----7----------|-------9--------|
D|---7---7-----7--|-----9----9-----|---7---7-----7--|-----9----9-----|
A|-5--------5-----|---7---------7--|-5--------5-----|---7---------7--|
E|----------------|-0--------------|----------------|-0--------------|

Verse 2

G|----------------|----------------|-9--------------|-7--------------|
D|--------------9-|-7--------------|----------------|----------------|
A|--0-------------|----------------|-8--------------|-8--------------|
E|----------------|----------------|----------------|----------------|

G|----------------|----------------|----------------|----------------|
D|-----9--7-------|----------------|-10-------------|----------------|
A|--0--------7----|----------------|-8--------------|----------------|
E|--------------5-|-5--------------|----------------|----------------|

G|----------------|----------------|-9--------------|-7--------------|
D|--------------9-|-7--------------|----------------|----------------|
A|--0-------------|----------------|-8--------------|-8--------------|
E|----------------|----------------|----------------|----------------|

G|----------------|-----------9--7-|----------------|----------------|
D|-----9--7-------|--------7--10-9-|-10-------------|----------------|
A|--0--------7----|----------------|-8--------------|-8--8--\7-------|
E|--------------5-|-5--------------|----------------|----------------|

Chorus 2

G|----------------|--------------9/|----------5-----|-------4/5-4----|
D|-------7--9--10-|-------5--7-----|-------3--------|--------------5-|
A|----7-----------|----5-----------|----3-----------|----3-----------|
E|-5--------------|-3--------------|-1--------------|-1--------------|


G|-----7----------|-------9--------|-----7----------|-------9--------|
D|---7---7-----7--|-----9----9-----|---7---7-----7--|-----9----9-----|
A|-5--------5-----|---7---------7--|-5--------5-----|---7---------7--|
E|----------------|-0--------------|----------------|-0--------------|

G|----------------|--------------9/|----------5-----|-------4/5-4----|
D|-------7--9--10-|-------5--7-----|-------3--------|--------------5-|
A|----7-----------|----5-----------|----3-----------|----3-----------|
E|-5--------------|-3--------------|-1--------------|-1--------------|


G|-----7----------|-------9--------|-----7----------|-------9--------|
D|---7---7-----7--|-----9----9-----|---7---7-----7--|-----9----9-----|
A|-5--------5-----|---7---------7--|-5--------5-----|---7---------7--|
E|----------------|-0--------------|----------------|-0--------------|

Bridge (I think it's the bass that play high notes/Credo che sia il basso a suonare le 
alte)

G|----17----------|16--------------|12-14-12--------|----------------|
D|----------------|----------------|----------------|-12-14----------|
A|-0--------------|----------------|0---------------|----------------|
E|----------------|----------------|----------------|----------------|

G|----17-------19/|16--------------|-12-14-12-------|----------------|
D|----------------|----------------|----------------|-12-14----------|
A|-0--------------|----------------|-0--------------|----------------|
E|----------------|----------------|----------------|----------------|

G|----17----------|16--------------|12-14-12--------|----------------|
D|----------------|----------------|----------------|-12-14----------|
A|-0--------------|----------------|0---------------|----------------|
E|----------------|----------------|----------------|----------------|


Chorus 2

G|----------------|--------------9/|----------5-----|-------4/5-4----|
D|-------7--9--10-|-------5--7-----|-------3--------|--------------5-|
A|----7-----------|----5-----------|----3-----------|----3-----------|
E|-5--------------|-3--------------|-1--------------|-1--------------|


G|-----7----------|-------9--------|-----7----------|-------9--------|
D|---7---7-----7--|-----9----9-----|---7---7-----7--|-----9----9-----|
A|-5--------5-----|---7---------7--|-5--------5-----|---7---------7--|
E|----------------|-0--------------|----------------|-0--------------|


G|----------------|--------------9/|----------5-----|-------4/5-4----|
D|-------7--9--10-|-------5--7-----|-------3--------|--------------5-|
A|----7-----------|----5-----------|----3-----------|----3-----------|
E|-5--------------|-3--------------|-1--------------|-1--------------|


G|-----7----------|-------9--------|-----7----------|-------9--------|
D|---7---7-----7--|-----9----9-----|---7---7-----7--|-----9----9-----|
A|-5--------5-----|---7---------7--|-5--------5-----|---7---------7--|
E|----------------|-0--------------|----------------|-0--------------|

G|-----7----------|-------9--------|
D|---7---7-----7--|-----9----9-----|
A|-5--------5-----|---7---------7--|
E|----------------|-0--------------|

Outro

G|----17----------|16--------------|12-14-12--------|----------------|
D|----------------|----------------|----------------|-12-14----------|
A|-0--------------|----------------|0---------------|----------------|
E|----------------|----------------|----------------|----------------|

G|----17-------19/|16--------------|-12-14-12-------|----------------|
D|----------------|----------------|----------------|-12-14----------|
A|-0--------------|----------------|-0--------------|----------------|
E|----------------|----------------|----------------|----------------|

G|----------------|----------------|-----------------|---------------|
D|----------------|----------------|-----------------|---------------|
A|-0--------------|-0--------------|-0---------------|-0-------------|
E|----------------|----------------|-----------------|---------------|

played!

tablatura suonata!
            
Submit corrections

comments powered by Disqus
↑ Back to top | Talk Talk Bass for RenéE. Lyrics for acoustic guitar and electric guitar. Tablatures and chords are parodies/interpretations of the original songs. You may use it for private study, scholarship, research or language learning purposes only