» » »

Talk Talk, Living In Another World Tabs (ver.1)

Artists:  A B C D E F G H I J K L M N O P Q R S T U V W X Y Z # 

Living In Another World Tabs (ver.1)

Talk Talk Tabs
 Rating:
4/5 (4 votes)
Living In Another World lessons Tabs too difficult? Try these video lessons and learn fast
1
                -------------------------------------------------------------------------------
-------------------------------------------------------------------------------

Tuning: Standard

Notes: this is played a semitone higher on the record The Colour of Spring, so put a 
on the 1st fret.  Live they play it without, as per Live in Montreux, which is the version 
worked it out from.

Main Riff:

You really need to listen the track to get the timing here

    Abm Abm7         E   Eadd9   F#

e|--4---4---4---4----0---0---0---2-------------------------------------------|
B|--4---7---4---7----0---0---0---2-------------------------------------------|
G|--4---4---4---4----1---1---1---3-------------------------------------------|
D|--6---4---6---4----2---4---2---4-------------------------------------------|
A|--6---6---6---6----2---2---2---4-------------------------------------------|
E|--4---4---4---4----0---0---0---2-------------------------------------------|


Pre Chorus:

Guitarist pedals on this note and hits the Ab half way

e|---------------------------------------------------------------------------|
B|---------------------------------------------------------------------------|
G|---------------------------------------------------------------------------|
D|----8--6--8----------------------------------------------------------------|
A|---------------------------------------------------------------------------|
E|---------------------------------------------------------------------------|


Chorus:

Note: in the live version he plays the following twice in a row.
On the record i think it varies slightly, in that the patterns cross over
a little.  Either way it will sound right

e|---------------------------------------------------------------------------|
B|-------5----5----5----5----5----5----5----5--------------------------------|
G|-----0----0----0----0----0----0----0----2----------------------------------|
D|---2----2----2----2----2----2----2----2------------------------------------|
A|---------------------------------------------------------------------------|
E|---------------------------------------------------------------------------|

e|---------------------------------------------------------------------------|
B|-------3----3----3----3----3----3----3----3--------------------------------|
G|-----0----0----0----0----0----0----0----2----------------------------------|
D|---2----2----2----2----2----2----2----2------------------------------------|
A|---------------------------------------------------------------------------|
E|---------------------------------------------------------------------------|


Vese: (Figure 1)

Better parted
I see people crying
Truth gets harder
There's no sense in lying

Pre Chorus: (Figure 2)

Bbm                          Gb   Ab   Bbm
Help me find a way from this maze

                Gb  Ab
I can't help myself

Chorus: (Figure 3)

Em                               C              D
When I see tenderness before you left [Forget]
Em                              C               D
That even breaking up was never meant [Forget]
Em                               C
But only angels look before they tread [Forget]
            D          Em
[living in another world to you]
                     C
[living in another world to you]
            D
[living in another world to you]

Better parted I see people hiding
Speech gets harder, there's no sense in writing

Help me Find a way from this maze
I can't help myself

When I see tenderness before you left [Forget]
That even breaking up was never meant [Forget]
But only angels look before they tread [Forget]
[living in another world to you]
[living in another world to you]
[living in another world to you]

Help me
Find a way from this maze
I'm living in another world to you
and I can't help myself

Did I see tenderness where you saw hell? [Forget]
Did I see angels in the hand I held? [Forget]
God only knows what kind of tale you'd tell [Forget]
[living in another world to you]
[living in another world to you]
[living in another world to you]

| /  slide up
| \  slide down
| h  hammer-on
| p  pull-off
| ~  vibrato
| +  harmonic
| x  Mute note
===============================================================================
            
Submit corrections

comments powered by Disqus
↑ Back to top | Talk Talk Tabs for Living In Another World. Lyrics for acoustic guitar and electric guitar. 1 Tablatures and chords are parodies/interpretations of the original songs. You may use it for private study, scholarship, research or language learning purposes only