» » »

It's My Life Bass tabs (ver.1)

Artists:  A B C D E F G H I J K L M N O P Q R S T U V W X Y Z # 

It's My Life Bass tabs (ver.1)

Talk Talk
Rating:
0/5 (0 votes)

Hard to play? Try these video lessons and learn fast.
                Its My Life
Talk Talk

i was able to get the gist of the song at first from a previous tab. i listened to the
and was able to make a few modifications. this tab is really darn close to the actual
this is my first tab so if i make mistakes please bear with me. If you do find mistakes 

INTRO
G|----------------------------------|----------------------------------|
D|--------------------------------11|----------------------------------|
A|-6-46--6-46-8--8-68-11--11-811-8--|-6-46--6-46-8--8-68-11--11-811-812|
D|-----6----------------------------|-----6----------------------------|

G|----------------------------------|----------------------------------|
D|------------------0------8-6------|----------------6-4-----4---6-----|
A|7-577--5------0-2----5-7-----7----|----2-3-33--3-5-----5--3---5------|
D|---------7-0-2------5-------------|3-5-------2-----------1---3-------|

G|----------------------------------|----------------------------------|
D|----------------------------------|----------------------------------|
A|--3-5-3-5--5----3--3-3------------|----------------------------------|
D|5-----------3-5--5----1-----------|----------------------------------|

(you only play the above once. then he comes in singing on the next one)


G|------------------------------------|------------------------------------|
D|----------------------------------11|--------------------------------11--|
A|-6-46--6-46-8--8-68-11--11-811-8----|-6-46--6-46-8--8-68-11--11-811-8----|
D|-----6------------------------------|-----6------------------------------|

G|------------------------------------|------------------------------------|
D|----------------------------------11|------------------------------------|
A|-6-46--6-46-8--8-68-11--11-811-8----|-6-46--6-46-8--8-68-11--11-811-812--|
D|-----6------------------------------|-----6------------------------------|

G|--------------------------------|------------------------------------|
D|-----------------0------8-6-----|----------------6-4-----------------|
A|7-577--5-----0-2----5-7----7----|----2-3-33--3-5----5----3-4---5-6---|
D---------7-0-2------5------------|3-5-------2---------1--3---3-5------|

G|------------------------------------------|---------------------------------|
D|-----8-6-----------------6-4--------------|---------------------------------|
A|-5-7----7-----2-3-33-3-5----5---3-4---5-6-|--3-5-3-5--5---3-3--3--3-5-3-5--5|
D|5----------3-5------2----------1-----3----|5-----------3-5-5----5-----------|

(towards the end the last bit on the left of this last bar transitions into the one on 
right)
G|--------------------------------------|--------------------------------------|
D|--------------------------------------|--------------------------------------|
A|----3--3--3----   "          "        |---3-3-5-7-- (and so on) "    "   ----|
D|3-5--5---------   "          "        |3-5-5------3-   "     "           ----|


The last part you just repeat till the end. i love this bass part. i hope this tab helps
again if anything just contact me through my e-mail (above).
            
Hard to play? Try these video lessons and learn fast. | Correct




comments powered by Disqus
↑ Back to top | Tablatures and chords are parodies/interpretations of the original songs. You may use it for private study, scholarship, research or language learning purposes only