» » »

Wild Wild Life Bass tabs (ver.2)

Artists:  A B C D E F G H I J K L M N O P Q R S T U V W X Y Z # 

Wild Wild Life Bass tabs (ver.2)

Talking Heads
Rating:
0/5 (0 votes)

Hard to play? Try these video lessons and learn fast.
                ----------------------------------------------------------------------------
			     WILD WILD LIFE - Talking Heads
----------------------------------------------------------------------------


Tuning:  Standard (EADG)


I think this is real close to what Tina Weymouth plays on the recording, but there might 
a few variations at the ends of phrases.  There are four main riffs; see below for song 
 This is a fun one to play, so enjoy!


INTRO AND VERSE
G---------------------|
D---------------------|
A---------------------|
E----00--00--00--0075-|


PRE CHORUS
G--------------------------------------|
D--------532--------------532----------|
A----33-3---5--------33--3---5---------|
E------3-----11--33-----3-----11--3-3--|


CHORUS
G---------------------------------------|
D--------------7-6-5-4------------------|
A----------------------55--55-577-75575-|
E----55--055--0-----------5-------------|


BRIDGE
G-------------------------------------------------------------------|
D-------------------------------------------------------------------|
A----------------------------------3-333-333-333-335-555-553-333-33-|
E--2-222-222-222-223-333-333-333-33---------------------------------|

G------------------------------------------------------------------|
D------------------------------------------------------------------|
A----------------------------------3-333-333-333-33----------------|
E--2-222-222-222-223-333-333-333-33----------------11--33----------|

SONG STRUCTURE
INTRO x4
VERSE x4
PRE CHORUS x2
CHORUS x4
REPEAT ABOVE FOR SECOND VERSE (INCLUDING INTRO)
BRIDGE
GUITAR SOLO OVER VERSE x4
PRE CHORUS x2
CHORUS x8
            
Hard to play? Try these video lessons and learn fast. | Correct




comments powered by Disqus
↑ Back to top | Tablatures and chords are parodies/interpretations of the original songs. You may use it for private study, scholarship, research or language learning purposes only