» » »

Talking Heads, Who Is It Bass tabs (ver.1)

Artists:  A B C D E F G H I J K L M N O P Q R S T U V W X Y Z # 

Who Is It Bass tabs (ver.1)

Talking Heads Tabs
Rating:
0/5 (0 votes)
Who Is It lessons Tabs too difficult? Try these video lessons and learn fast
                “Who Is It” bass tab by the Talking Heads of their album “77”

INTRO/VERSE
”Who, who is it?”
G-------------3-|
D----------1-3--|
A-3-1-3-1-3-----|
E---------------|    x8


CHORUS
“What is it?”
G-7-5----------|
D----7-5-------|
A-------5-3--3-|
E----------5---|	x2

Then
“Oh, baby it’s you”
G-------------------------|
D-------------------2-4-5-|
A-2-22-2-22-2-22-2-5------|
E-------------------------|


Bridge
“Watch out now baby coz I’m in love with you”
G------------------------|
D------------------------|
A-7--8--------8--10-8--8-|
E-----10-8-10--------10--|	x2

Then
“If you don’t love me I don’t know what I’m going to do”
G-------------------------|
D-------------------2-4-5-|
A-2-22-2-22-2-22-2-5------|
E-------------------------|
            

comments powered by Disqus
↑ Back to top | Talking Heads Bass for Who Is It. Lyrics for acoustic guitar and electric guitar. Tablatures and chords are parodies/interpretations of the original songs. You may use it for private study, scholarship, research or language learning purposes only