>
 >
What A Day That Was

What A Day That Was Guitar Tabs

Talking Heads - What A Day That Was chords, tabs, tablatures, lyrics

Guitar lessons | Add/correct | Request | Top 50 tabs Artists:  A B C D E F G H I J K L M N O P Q R S T U V W X Y Z 0-9

What A Day That Was Guitar Tabs – Talking Heads

CD, Sheet music, Poster

Do you like What A Day That Was? Share with your friends now
Bass TabsTabs
Hey this is pretty simple except for the solo which is very rough. This is "What a Day 
Was" which appears on both the CD and ground-breaking concert movie Stop Making Sense. 
a song by David Byrne, this is the cover by Talking Heads that appears in the movie. Hope it helps!

These are the two basic strumming patterns in the song (listen to it and you'll figure 
out pretty easily):

Strumming pattern one:
   E
e--0---0---x---0---x---x----------------------------|
B--0---0---x---0---x---x----------------------------|
G--1---1---x---1---x---x----------------------------|
D--2-------x-------x---x----------------------------|
A--2-------x-------x---x----------------------------|
E--0-------x-------x---x----------------------------|
  Down Up Down Up Down Up

And do the same pattern when you use it on the G chord.

Strumming pattern two:
   D
e--2-2-2-2-2-2-2-2--------------------------------------|
B--3-3-3-3-3-3-3-3--------------------------------------|
G--2-2-2-2-2-2-2-2--------------------------------------|
D--0-0-0-0-0-0-0-0--------------------------------------|
A--0-0-0-0-0-0-0-0--------------------------------------|
E--0-0-0-0-0-0-0-0--------------------------------------|

And again the same for the other chords in the pattern.

Now, we go with the song:

Start.

Before singing begins...
   E
e--0---0---x---0---x---x----------------------------|
B--0---0---x---0---x---x----------------------------|
G--1---1---x---1---x---x----------------------------|
D--2-------x-------x---x----------------------------|
A--2-------x-------x---x----------------------------|
E--0-------x-------x---x----------------------------|
  Down Up Down Up Down Up

Continue as vocals kick in.

"Well, I'm dressed up so nice.
And I'm doin my best.
And I'm...startin over.
I'm startin over in anotha place."

Next verse begins...

   G
e--3---3---x---3---x---x----------------------------|
B--3---3---x---3---x---x----------------------------|
G--0---0---x---0---x---x----------------------------|
D--0-------x-------x---x----------------------------|
A--2-------x-------x---x----------------------------|
E--3-------x-------x---x----------------------------|
  Down Up Down Up Down Up

"Lemme tell you a story,
A big chief with a golden crown.
He's got rings on his fingers.
And he walks up...up to the throne.
He's makin shapes with his hands.
And don't ya dare step back.
And don't ya dare sit down!
And don't ya dare stick out.
Oh. Oh, but on the..."

Strumming pattern two.

"First day, we had"

   D
e--2-2-2-2-2-2-2-2--------------------------------------|
B--3-3-3-3-3-3-3-3--------------------------------------|
G--2-2-2-2-2-2-2-2--------------------------------------|
D--0-0-0-0-0-0-0-0--------------------------------------|
A--0-0-0-0-0-0-0-0--------------------------------------|
E--0-0-0-0-0-0-0-0--------------------------------------|

"everything we could stand."

   C
e--0-0-0-0-0-0-0-0--------------------------------------|
B--1-1-1-1-1-1-1-1--------------------------------------|
G--0-0-0-0-0-0-0-0--------------------------------------|
D--2-2-2-2-2-2-2-2--------------------------------------|
A--3-3-3-3-3-3-3-3--------------------------------------|
E--x-x-x-x-x-x-x-x--------------------------------------|

"Oh OH oh, never ask for"

   G
e--3-3-3-3-3-3-3-3--------------------------------------|
B--3-3-3-3-3-3-3-3--------------------------------------|
G--0-0-0-0-0-0-0-0--------------------------------------|
D--0-0-0-0-0-0-0-0--------------------------------------|
A--2-2-2-2-2-2-2-2--------------------------------------|
E--3-3-3-3-3-3-3-3--------------------------------------|

"more...and on the"

   D
e--2-2-2-2-2-2-2-2--------------------------------------|
B--3-3-3-3-3-3-3-3--------------------------------------|
G--2-2-2-2-2-2-2-2--------------------------------------|
D--0-0-0-0-0-0-0-0--------------------------------------|
A--0-0-0-0-0-0-0-0--------------------------------------|
E--0-0-0-0-0-0-0-0--------------------------------------|

"second day, there was"

   D
e--2-2-2-2-2-2-2-2--------------------------------------|
B--3-3-3-3-3-3-3-3--------------------------------------|
G--2-2-2-2-2-2-2-2--------------------------------------|
D--0-0-0-0-0-0-0-0--------------------------------------|
A--0-0-0-0-0-0-0-0--------------------------------------|
E--0-0-0-0-0-0-0-0--------------------------------------|

"nothin else left to do."

   C
e--0-0-0-0-0-0-0-0--------------------------------------|
B--1-1-1-1-1-1-1-1--------------------------------------|
G--0-0-0-0-0-0-0-0--------------------------------------|
D--2-2-2-2-2-2-2-2--------------------------------------|
A--3-3-3-3-3-3-3-3--------------------------------------|
E--x-x-x-x-x-x-x-x--------------------------------------|

"Oh OH oh what a day that"

   G
e--3-3-3-3-3-3-3-3--------------------------------------|
B--3-3-3-3-3-3-3-3--------------------------------------|
G--0-0-0-0-0-0-0-0--------------------------------------|
D--0-0-0-0-0-0-0-0--------------------------------------|
A--2-2-2-2-2-2-2-2--------------------------------------|
E--3-3-3-3-3-3-3-3--------------------------------------|

"was...ohhhhh ah!"

   D
e--2-2-2-2-2-2-2-2--------------------------------------|
B--3-3-3-3-3-3-3-3--------------------------------------|
G--2-2-2-2-2-2-2-2--------------------------------------|
D--0-0-0-0-0-0-0-0--------------------------------------|
A--0-0-0-0-0-0-0-0--------------------------------------|
E--0-0-0-0-0-0-0-0--------------------------------------|

Back to strumming pattern one.

   E
e--0---0---x---0---x---x----------------------------|
B--0---0---x---0---x---x----------------------------|
G--1---1---x---1---x---x----------------------------|
D--2-------x-------x---x----------------------------|
A--2-------x-------x---x----------------------------|
E--0-------x-------x---x----------------------------|
  Down Up Down Up Down Up

Continue...

"Well there are 50,000 beggars...
Roamin in the streets, they have
Lost all their possesions,
They have nothin left to eat."

Same pattern, G chord.

   G
e--3---3---x---3---x---x----------------------------|
B--3---3---x---3---x---x----------------------------|
G--0---0---x---0---x---x----------------------------|
D--0-------x-------x---x----------------------------|
A--2-------x-------x---x----------------------------|
E--3-------x-------x---x----------------------------|
  Down Up Down Up Down Up

"Down come a bolt of lightning.
Start an electrical storm.
It starts a chain reaction.
Go pull a fire alarm. (I say, uh)
I'm dreamin of a city.
It was my own invention.
I put the wheels in motion.
A time for BIG decision, oh oh but on the..."

Strumming pattern two.

"First day, we had"

   D
e--2-2-2-2-2-2-2-2--------------------------------------|
B--3-3-3-3-3-3-3-3--------------------------------------|
G--2-2-2-2-2-2-2-2--------------------------------------|
D--0-0-0-0-0-0-0-0--------------------------------------|
A--0-0-0-0-0-0-0-0--------------------------------------|
E--0-0-0-0-0-0-0-0--------------------------------------|

"everything we could stand."

   C
e--0-0-0-0-0-0-0-0--------------------------------------|
B--1-1-1-1-1-1-1-1--------------------------------------|
G--0-0-0-0-0-0-0-0--------------------------------------|
D--2-2-2-2-2-2-2-2--------------------------------------|
A--3-3-3-3-3-3-3-3--------------------------------------|
E--x-x-x-x-x-x-x-x--------------------------------------|

"Oh OH oh, and we let it"

   G
e--3-3-3-3-3-3-3-3--------------------------------------|
B--3-3-3-3-3-3-3-3--------------------------------------|
G--0-0-0-0-0-0-0-0--------------------------------------|
D--0-0-0-0-0-0-0-0--------------------------------------|
A--2-2-2-2-2-2-2-2--------------------------------------|
E--3-3-3-3-3-3-3-3--------------------------------------|

"fall...and on the"

   D
e--2-2-2-2-2-2-2-2--------------------------------------|
B--3-3-3-3-3-3-3-3--------------------------------------|
G--2-2-2-2-2-2-2-2--------------------------------------|
D--0-0-0-0-0-0-0-0--------------------------------------|
A--0-0-0-0-0-0-0-0--------------------------------------|
E--0-0-0-0-0-0-0-0--------------------------------------|

"second day, there was"

   D
e--2-2-2-2-2-2-2-2--------------------------------------|
B--3-3-3-3-3-3-3-3--------------------------------------|
G--2-2-2-2-2-2-2-2--------------------------------------|
D--0-0-0-0-0-0-0-0--------------------------------------|
A--0-0-0-0-0-0-0-0--------------------------------------|
E--0-0-0-0-0-0-0-0--------------------------------------|

"nothin else left at all."

   C
e--0-0-0-0-0-0-0-0--------------------------------------|
B--1-1-1-1-1-1-1-1--------------------------------------|
G--0-0-0-0-0-0-0-0--------------------------------------|
D--2-2-2-2-2-2-2-2--------------------------------------|
A--3-3-3-3-3-3-3-3--------------------------------------|
E--x-x-x-x-x-x-x-x--------------------------------------|

"Oh OH oh what a day that"

   G
e--3-3-3-3-3-3-3-3--------------------------------------|
B--3-3-3-3-3-3-3-3--------------------------------------|
G--0-0-0-0-0-0-0-0--------------------------------------|
D--0-0-0-0-0-0-0-0--------------------------------------|
A--2-2-2-2-2-2-2-2--------------------------------------|
E--3-3-3-3-3-3-3-3--------------------------------------|

"was...ohhhhh..."

   D
e--2-2-2-2-2-2-2-2--------------------------------------|
B--3-3-3-3-3-3-3-3--------------------------------------|
G--2-2-2-2-2-2-2-2--------------------------------------|
D--0-0-0-0-0-0-0-0--------------------------------------|
A--0-0-0-0-0-0-0-0--------------------------------------|
E--0-0-0-0-0-0-0-0--------------------------------------|

"Oooooooh! A day that"

   Bb
e--x-x-x-x-x-x-x-x-x-x-x-x------------------------------|
B--3-3-3-3-3-3-3-3-3-3-3-3------------------------------|
G--3-3-3-3-3-3-3-3-3-3-3-3------------------------------|
D--3-3-3-3-3-3-3-3-3-3-3-3------------------------------|
A--1-1-1-1-1-1-1-1-1-1-1-1------------------------------|
E--x-x-x-x-x-x-x-x-x-x-x-x------------------------------|

"was..."

   G
e--3-3-3-3----------------------------------------------|
B--3-3-3-3----------------------------------------------|
G--0-0-0-0----------------------------------------------|
D--0-0-0-0----------------------------------------------|
A--2-2-2-2----------------------------------------------|
E--3-3-3-3----------------------------------------------|

"Oooooooh, and that's the way it"

   Bb
e--x-x-x-x-x-x-x-x-x-x-x-x------------------------------|
B--3-3-3-3-3-3-3-3-3-3-3-3------------------------------|
G--3-3-3-3-3-3-3-3-3-3-3-3------------------------------|
D--3-3-3-3-3-3-3-3-3-3-3-3------------------------------|
A--1-1-1-1-1-1-1-1-1-1-1-1------------------------------|
E--x-x-x-x-x-x-x-x-x-x-x-x------------------------------|

"goes..."

   G
e--3-3-3-3----------------------------------------------|
B--3-3-3-3----------------------------------------------|
G--0-0-0-0----------------------------------------------|
D--0-0-0-0----------------------------------------------|
A--2-2-2-2----------------------------------------------|
E--3-3-3-3----------------------------------------------|

"There's a million ways..."

   Bb
e--x-x-x-x-x-x-x-x--------------------------------------|
B--3-3-3-3-3-3-3-3--------------------------------------|
G--3-3-3-3-3-3-3-3--------------------------------------|
D--3-3-3-3-3-3-3-3--------------------------------------|
A--1-1-1-1-1-1-1-1--------------------------------------|
E--x-x-x-x-x-x-x-x--------------------------------------|

"to get things"
   D
e--2-2-2-2----------------------------------------------|
B--3-3-3-3----------------------------------------------|
G--2-2-2-2----------------------------------------------|
D--0-0-0-0----------------------------------------------|
A--0-0-0-0----------------------------------------------|
E--0-0-0-0----------------------------------------------|

"done."
   F
e--1-1-1-1----------------------------------------------|
B--1-1-1-1----------------------------------------------|
G--2-1-1-1----------------------------------------------|
D--3-3-3-3----------------------------------------------|
A--3-3-3-3----------------------------------------------|
E--x-x-x-x----------------------------------------------|

"There's a million ways..."
   Bb
e--x-x-x-x-x-x-x-x--------------------------------------|
B--3-3-3-3-3-3-3-3--------------------------------------|
G--3-3-3-3-3-3-3-3--------------------------------------|
D--3-3-3-3-3-3-3-3--------------------------------------|
A--1-1-1-1-1-1-1-1--------------------------------------|
E--x-x-x-x-x-x-x-x--------------------------------------|

"to make things"
   D
e--2-2-2-2----------------------------------------------|
B--3-3-3-3----------------------------------------------|
G--2-2-2-2----------------------------------------------|
D--0-0-0-0----------------------------------------------|
A--0-0-0-0----------------------------------------------|
E--0-0-0-0----------------------------------------------|

"work out..."
   F
e--1-1-1-1----------------------------------------------|
B--1-1-1-1----------------------------------------------|
G--2-1-1-1----------------------------------------------|
D--3-3-3-3----------------------------------------------|
A--3-3-3-3----------------------------------------------|
E--x-x-x-x----------------------------------------------|

"Ohhhhhhh!!"
   E
e--0-0-0-0-0-0-0-0-0-0-0-0-0-0-0-0---------------------|
B--0-0-0-0-0-0-0-0-0-0-0-0-0-0-0-0---------------------|
G--1-1-1-1-1-1-1-1-1-1-1-1-1-1-1-1---------------------|
D--2-2-2-2-2-2-2-2-2-2-2-2-2-2-2-2---------------------|
A--2-2-2-2-2-2-2-2-2-2-2-2-2-2-2-2---------------------|
E--0-0-0-0-0-0-0-0-0-0-0-0-0-0-0-0---------------------|

Solo.
(not completely accurate)
A lot of this is rapid picking,
But if you want it'd probably
be better to just improvise along
these frets on the guitar. It sounds somewhat close.

e------------------------------------------------------|
B------------------------------------------------------|
G--11---13-14----11---13-14----11---13-14-14-----------|
D--------------------------------------------0-1-2-3-4-|
A------------------------------------------------------|
E------------------------------------------------------|

e------------------------------------------------------|
B-------------10/12-17-x-x-16-x-x-15-x-x-14-x-x--17----|
G--10--12/14-------------------------------------------|
D------------------------------------------------------|
A------------------------------------------------------|
E------------------------------------------------------|

e------------------------------------------------------|
B----------------------15/14/15/14--------0-1-2-3-4----|
G-13/14/13--16/17/14----------------15-----------------|
D------------------------------------------------------|
A------------------------------------------------------|
E------------------------------------------------------|

e--------10/12-17-x-x-16-x-x-15------------------------|
B--12/14-------------------------15----15--------------|
G-----------------------------------15----13/14/13/11/9|
D------------------------------------------------------|
A------------------------------------------------------|
E------------------------------------------------------|

e------------------------------------------------------|
B------------------------------------------------------|
G--14/13/14--14--14-------14/15/14/12----15/14/15/12---|
D---------------------15-------------------------------|
A------------------------------------------------------|
E------------------------------------------------------|

e------------------------------------------------------|
B------------------------------------------------------|
G--11-12-13-15----17/16/17/16/14-----------------------|
D------------------------------------------------------|
A------------------------------------------------------|
E------------------------------------------------------|

(I'd be surprised if this is useful to anyone.
This is hard as it's played by the keyboard.)

Back to strumming pattern one.

   E
e--0---0---x---0---x---x----------------------------|
B--0---0---x---0---x---x----------------------------|
G--1---1---x---1---x---x----------------------------|
D--2-------x-------x---x----------------------------|
A--2-------x-------x---x----------------------------|
E--0-------x-------x---x----------------------------|
  Down Up Down Up Down Up

"Well I'm goin right through...
And the light came down.
And they're roundin' em up...

Same pattern, G chord.

   G
e--3---3---x---3---x---x----------------------------|
B--3---3---x---3---x---x----------------------------|
G--0---0---x---0---x---x----------------------------|
D--0-------x-------x---x----------------------------|
A--2-------x-------x---x----------------------------|
E--3-------x-------x---x----------------------------|
  Down Up Down Up Down Up

"They're movin forward and backward.
Movin backwards and front.
And they're enjoyin themselves...
Movin in ev'ry direction.
And if you feel like you're in a whirlpool...
You feel like goin home.
You feel like talkin to someone
Who knows the difference between right and wrong! Oh but on the..."

Strumming pattern two.

"First day, we had"

   D
e--2-2-2-2-2-2-2-2--------------------------------------|
B--3-3-3-3-3-3-3-3--------------------------------------|
G--2-2-2-2-2-2-2-2--------------------------------------|
D--0-0-0-0-0-0-0-0--------------------------------------|
A--0-0-0-0-0-0-0-0--------------------------------------|
E--0-0-0-0-0-0-0-0--------------------------------------|

"everything we could stand."

   C
e--0-0-0-0-0-0-0-0--------------------------------------|
B--1-1-1-1-1-1-1-1--------------------------------------|
G--0-0-0-0-0-0-0-0--------------------------------------|
D--2-2-2-2-2-2-2-2--------------------------------------|
A--3-3-3-3-3-3-3-3--------------------------------------|
E--x-x-x-x-x-x-x-x--------------------------------------|

"Oh OH oh, and we let it"

   G
e--3-3-3-3-3-3-3-3--------------------------------------|
B--3-3-3-3-3-3-3-3--------------------------------------|
G--0-0-0-0-0-0-0-0--------------------------------------|
D--0-0-0-0-0-0-0-0--------------------------------------|
A--2-2-2-2-2-2-2-2--------------------------------------|
E--3-3-3-3-3-3-3-3--------------------------------------|

"fall...and on the"

   D
e--2-2-2-2-2-2-2-2--------------------------------------|
B--3-3-3-3-3-3-3-3--------------------------------------|
G--2-2-2-2-2-2-2-2--------------------------------------|
D--0-0-0-0-0-0-0-0--------------------------------------|
A--0-0-0-0-0-0-0-0--------------------------------------|
E--0-0-0-0-0-0-0-0--------------------------------------|

"second day, there was"

   D
e--2-2-2-2-2-2-2-2--------------------------------------|
B--3-3-3-3-3-3-3-3--------------------------------------|
G--2-2-2-2-2-2-2-2--------------------------------------|
D--0-0-0-0-0-0-0-0--------------------------------------|
A--0-0-0-0-0-0-0-0--------------------------------------|
E--0-0-0-0-0-0-0-0--------------------------------------|

"nothin else left at all."

   C
e--0-0-0-0-0-0-0-0--------------------------------------|
B--1-1-1-1-1-1-1-1--------------------------------------|
G--0-0-0-0-0-0-0-0--------------------------------------|
D--2-2-2-2-2-2-2-2--------------------------------------|
A--3-3-3-3-3-3-3-3--------------------------------------|
E--x-x-x-x-x-x-x-x--------------------------------------|

"Oh OH oh what a day that"

   G
e--3-3-3-3-3-3-3-3--------------------------------------|
B--3-3-3-3-3-3-3-3--------------------------------------|
G--0-0-0-0-0-0-0-0--------------------------------------|
D--0-0-0-0-0-0-0-0--------------------------------------|
A--2-2-2-2-2-2-2-2--------------------------------------|
E--3-3-3-3-3-3-3-3--------------------------------------|

"was...ohhhhh..."

   D
e--2-2-2-2-2-2-2-2--------------------------------------|
B--3-3-3-3-3-3-3-3--------------------------------------|
G--2-2-2-2-2-2-2-2--------------------------------------|
D--0-0-0-0-0-0-0-0--------------------------------------|
A--0-0-0-0-0-0-0-0--------------------------------------|
E--0-0-0-0-0-0-0-0--------------------------------------|

Strumming pattern one. Repeat through jungle sounds.

   E
e--0---0---x---0---x---x----------------------------|
B--0---0---x---0---x---x----------------------------|
G--1---1---x---1---x---x----------------------------|
D--2-------x-------x---x----------------------------|
A--2-------x-------x---x----------------------------|
E--0-------x-------x---x----------------------------|
  Down Up Down Up Down Up

"Ooooooooooh ay-yi-yi heha ha-ha! HA!
"Ooh em a rite! Oh, oh oh!
"Ow! Ow! HEY!"

New strumming: rapid motion.
   G
e--3-3-3-3-3-3-3-3-3-----------------------------------|
B--3-3-3-3-3-3-3-3-3-----------------------------------|
G--0-0-0-0-0-0-0-0-0-----------------------------------|
D------------------------------------------------------|
A------------------------------------------------------|
E------------------------------------------------------|

(Keyboard jingle.)

   G
e--3-3-3-3-3-3-3-3-3-----------------------------------|
B--3-3-3-3-3-3-3-3-3-----------------------------------|
G--0-0-0-0-0-0-0-0-0-----------------------------------|
D------------------------------------------------------|
A------------------------------------------------------|
E------------------------------------------------------|

(Keyboard jingle.)

   G
e--3-3-3-3-3-3-3-3-3-----------------------------------|
B--3-3-3-3-3-3-3-3-3-----------------------------------|
G--0-0-0-0-0-0-0-0-0-----------------------------------|
D------------------------------------------------------|
A------------------------------------------------------|
E------------------------------------------------------|

Pause.

   G
e--3-3-3-3-3-3-3-3-3-----------------------------------|
B--3-3-3-3-3-3-3-3-3-----------------------------------|
G--0-0-0-0-0-0-0-0-0-----------------------------------|
D------------------------------------------------------|
A------------------------------------------------------|
E------------------------------------------------------|

(Keyboard jingle.)

   G
e--3-3-3-3-3-3-3-3-3-----------------------------------|
B--3-3-3-3-3-3-3-3-3-----------------------------------|
G--0-0-0-0-0-0-0-0-0-----------------------------------|
D------------------------------------------------------|
A------------------------------------------------------|
E------------------------------------------------------|

(Keyboard jingle.)

   G
e--3-3-3-3-3-3-3-3-3-----------------------------------|
B--3-3-3-3-3-3-3-3-3-----------------------------------|
G--0-0-0-0-0-0-0-0-0-----------------------------------|
D------------------------------------------------------|
A------------------------------------------------------|
E------------------------------------------------------|

Pause.

New strumming pattern 1. Repeat this through "vroom vroom" sequence.

"We're goin boom boom boom. And that's the way we live.
            E
e-----------0----0----0-----0---0---x---0---x---x-----------|
B-----------0----0----0-----0---0---x---0---x---x-----------|
G-----------1----1----1-----1---1---x---1---x---x-----------|
D-----------2----2----2-----2-------x-------x---x-----------|
A-----------2----2----2-----2-------x-------x---x-----------|
E-----------0----0----0-----0-------x-------x---x-----------|
                           Down Up Down Up Down Up

   E
e--0---0---x---0---x---x----------------------------|
B--0---0---x---0---x---x----------------------------|
G--1---1---x---1---x---x----------------------------|
D--2-------x-------x---x----------------------------|
A--2-------x-------x---x----------------------------|
E--0-------x-------x---x----------------------------|
  Down Up Down Up Down Up

"And in a great big room. And that's the way we live.
            E
e-----------0----0----0-----0---0---x---0---x---x-----------|
B-----------0----0----0-----0---0---x---0---x---x-----------|
G-----------1----1----1-----1---1---x---1---x---x-----------|
D-----------2----2----2-----2-------x-------x---x-----------|
A-----------2----2----2-----2-------x-------x---x-----------|
E-----------0----0----0-----0-------x-------x---x-----------|
                           Down Up Down Up Down Up

e--0-1-2-3-4-5-6-7-------------------------------------|
B--0-1-2-3-4-5-6-7-------------------------------------|
G--1-2-3-4-5-6-7-8-------------------------------------|
D--2-3-4-5-6-7-8-9-------------------------------------|
A--2-3-4-5-6-7-8-9-------------------------------------|
E--0-1-2-3-4-5-6-7-------------------------------------|

"We're goin boom boom boom. And that's the way we live.
            E
e-----------0----0----0-----0---0---x---0---x---x-----------|
B-----------0----0----0-----0---0---x---0---x---x-----------|
G-----------1----1----1-----1---1---x---1---x---x-----------|
D-----------2----2----2-----2-------x-------x---x-----------|
A-----------2----2----2-----2-------x-------x---x-----------|
E-----------0----0----0-----0-------x-------x---x-----------|
                           Down Up Down Up Down Up

e--0-1-2-3-4-5-6-7-------------------------------------|
B--0-1-2-3-4-5-6-7-------------------------------------|
G--1-2-3-4-5-6-7-8-------------------------------------|
D--2-3-4-5-6-7-8-9-------------------------------------|
A--2-3-4-5-6-7-8-9-------------------------------------|
E--0-1-2-3-4-5-6-7-------------------------------------|

"And in a great big room. And that's the way we live.
            E
e-----------0----0----0-----0---0---x---0---x---x-----------|
B-----------0----0----0-----0---0---x---0---x---x-----------|
G-----------1----1----1-----1---1---x---1---x---x-----------|
D-----------2----2----2-----2-------x-------x---x-----------|
A-----------2----2----2-----2-------x-------x---x-----------|
E-----------0----0----0-----0-------x-------x---x-----------|
                           Down Up Down Up Down Up

e--0-1-2-3-4-5-6-7-------------------------------------|
B--0-1-2-3-4-5-6-7-------------------------------------|
G--1-2-3-4-5-6-7-8-------------------------------------|
D--2-3-4-5-6-7-8-9-------------------------------------|
A--2-3-4-5-6-7-8-9-------------------------------------|
E--0-1-2-3-4-5-6-7-------------------------------------|

"We're goin boom boom boom. And that's the way we live.
            E
e-----------0----0----0-----0---0---x---0---x---x-----------|
B-----------0----0----0-----0---0---x---0---x---x-----------|
G-----------1----1----1-----1---1---x---1---x---x-----------|
D-----------2----2----2-----2-------x-------x---x-----------|
A-----------2----2----2-----2-------x-------x---x-----------|
E-----------0----0----0-----0-------x-------x---x-----------|
                           Down Up Down Up Down Up

e--0-1-2-3-4-5-6-7-------------------------------------|
B--0-1-2-3-4-5-6-7-------------------------------------|
G--1-2-3-4-5-6-7-8-------------------------------------|
D--2-3-4-5-6-7-8-9-------------------------------------|
A--2-3-4-5-6-7-8-9-------------------------------------|
E--0-1-2-3-4-5-6-7-------------------------------------|

"And in a GREAT BIG ROOM. And that's the way we live!"
            E
e-----------0----0----0-----0---0---x---0---x---x-----------|
B-----------0----0----0-----0---0---x---0---x---x-----------|
G-----------1----1----1-----1---1---x---1---x---x-----------|
D-----------2----2----2-----2-------x-------x---x-----------|
A-----------2----2----2-----2-------x-------x---x-----------|
E-----------0----0----0-----0-------x-------x---x-----------|
                           Down Up Down Up Down Up

   "HA! HUH!"
    G    D           E
e---3----2-----------0------------------------------------|
B---3----3-----------0------------------------------------|
G---0----2-----------1------------------------------------|
D---0----0-----------2------------------------------------|
A---2----0-----------2------------------------------------|
E---3----0-----------0------------------------------------|

End.

Hope this helps! Thanks for looking!





Comments


Popular Talking Heads tabs & chords
Wild Wild Life Bass Tabs
(Nothing But) Flowers Tabs
Animals Tabs
Born Under Punches The Heat Goes On Intro Tabs
Creatures Of Love Tabs
Heven Ukulele
Psycho Killer 2 Ukulele
Radio Head Ukulele
Stay Up Late Ukulele
Television Man Ukulele


Song lyrics



↑ Back to top | Tablatures and chords are parodies/interpretations of the original songs. You may use it for private study, scholarship, research or language learning purposes only
© 2014 AZChords.com Contact us | Privacy policy | DMCA | Add/correct tabs | Request tabs | Top 50 tabs