>
 >
This Must Be The Place Naive Melody 2

This Must Be The Place Naive Melody 2 Guitar Tabs

Talking Heads - This Must Be The Place Naive Melody 2 chords, tabs, tablatures, lyrics

Guitar lessons | Add/correct | Request | Top 50 tabs Artists:  A B C D E F G H I J K L M N O P Q R S T U V W X Y Z 0-9

This Must Be The Place Naive Melody 2 Guitar Tabs – Talking Heads

CD, Sheet music, Poster

Do you like This Must Be The Place Naive Melody 2? Share with your friends now
Tabs
                             This must be the place - Talking Heads


Ok, this is my first crack at a tab so I hope it doesnt suck...


Tuning: E Standard


Bass line (Played throughout)

e|-----------------------------------------------|
B|-----------------------------------------------|
G|-----------------------------------------------|
D|-----------------------7---------------------7-|
A|-------10----10-7-7-10--------10---10-7-7-10---|
E|-10-10----10--------------8-8----8-------------|


"Lead line" 1

e|---------------------------|
B|---------------------------|
G|-7-7-7-7-7h9p7h9p7h9p7-----|Play 3 times
D|-----------------------9-9-|
A|---------------------------|
E|---------------------------|

e|-------------------------------|
B|-------------------------------|
G|-------------------------------|Play 2 times
D|-12-12-10-10-9-9-10-9----------|
A|----------------------10-10-12-|
E|-------------------------------|

e|-----------------------------------------------|
B|-----------------------------------------------|
G|-----------------------------------------------|Play 2 times
D|-9-9-9-10-10-10-10-9----9-9-9-10-10p9----------|
A|---------------------10---------------10-10-12-|
E|-----------------------------------------------|

e|-------------------------|
B|-------------------------|
G|-------------------------|
D|-------------17p16h17\12-|
A|-17p16h17\12-------------|
E|-------------------------|

e|--------------------------------------------------|
B|--------------------------------------------------|
G|--------------------------------------------------|
D|--------------------------------------------------|
A|-12p10h12p10h12p10h12p10-12p10h12p10h12p10h12p10--|
E|--------------------------------------------------|

e|-------------------------------|
B|-------------------------------|
G|-------------------------------|
D|----------17p16h17-------------|
A|-17p16h17----------17p16h17-12-|
E|-------------------------------|

e|--------------------------------------------------|
B|--------------------------------------------------|
G|--------------------------------------------------|
D|--------------------------------------------------|
A|-12p10h12p10h12p10h12p10-12p10h12p10h12p10h12p10--|
E|--------------------------------------------------|

Chord progression: D > Em > Cadd9 > Em (Played throughout)


Verse 1


Home - is where I want to be

pick me up and turn me round

I feel numb, born with a weak heart

I guess I must be having fun

The less we say about it the better

Make it up as we go along

Feet on the ground, head in the sky

its ok i know nothings wrong

nothings...



Hi-yo, Ive got plenty of time

Hi-yo, Youve got light in your eyes

And your standing here beside me

I love the passing of time

Never for money - always for love

Cover up and say goodnight

Say goodnight...



"Lead line" 2

e|---------------------------|
B|---------------------------|
G|-7-7-7-7-7h9p7h9p7h9p7-----|Play 3 times
D|-----------------------9-9-|
A|---------------------------|
E|---------------------------|

e|-------------------------------|
B|-------------------------------|
G|-------------------------------|Play 2 times
D|-12-12-10-10-9-9-10-9----------|
A|----------------------10-10-12-|
E|-------------------------------|

e|-------------------------|
B|-------------------------|
G|-------------------------|
D|-------------17p16h17\12-|
A|-17p16h17\12-------------|
E|-------------------------|

e|--------------------------------------------------|
B|--------------------------------------------------|
G|--------------------------------------------------|
D|--------------------------------------------------|
A|-12p10h12p10h12p10h12p10-12p10h12p10h12p10h12p10--|
E|--------------------------------------------------|

e|-------------------------------|
B|-------------------------------|
G|-------------------------------|
D|----------17p16h17-------------|
A|-17p16h17----------17p16h17-12-|
E|-------------------------------|

e|--------------------------------------------------|
B|--------------------------------------------------|
G|--------------------------------------------------|
D|--------------------------------------------------|
A|-12p10h12p10h12p10h12p10-12p10h12p10h12p10h12p10--|
E|--------------------------------------------------|

Verse 2 


Home - is where I want to be 

but I guess Im already there

I come home, she lifted up her wings

I guess that this must be the place

I cant tell one from another

Did i find you or you find me?

There was a time, before we were born

If someone asks this is where Ill be

Where Ill be...



Hi-yo, We drift in and out

Hi-yo, sing into my mouth

Out of all those kinds of people

Youve got a face with a view

Im just an animal, looking for a home

Share the same space for a minute or two

And you love me till my heart stops

Love me till Im dead

eyes that light up, eyes that look through

Cover up the blank spots, hit me on the head

Oooooooh-ooh-ooh-ooh.....



Theres another lead bit after this but I find its more fun to make 
something up as opposed to copying the song exactly.




************************************

| /   slide up
| \   slide down
| h   hammer-on
| p   pull-off
| ~   vibrato
| +   harmonic
| x   Mute note
| b   Bend
| pb  Pre-bend
| br  Bend release
| pbr Pre-bend release
| brb Bend release bend

************************************





Comments


Popular Talking Heads tabs & chords
Air Bass Tabs
Uh-oh Love Comes To Town Bass Tabs
And She Was Chords
Till My Head Falls Off Chords
Uh-Oh, Love Comes To Town Chords
Psycho Killer 3 Tabs
City Of Dreams Ukulele
Nothing But Flowers Ukulele
Once In A Lifetime Ukulele
Psycho Killer 2 Ukulele


Song lyrics



↑ Back to top | Tablatures and chords are parodies/interpretations of the original songs. You may use it for private study, scholarship, research or language learning purposes only
© 2014 AZChords.com Contact us | Privacy policy | DMCA | Add/correct tabs | Request tabs | Top 50 tabs