» » »

Great Curve Tabs (ver.1)

Artists:  A B C D E F G H I J K L M N O P Q R S T U V W X Y Z # 

Great Curve Tabs (ver.1)

Talking Heads
Rating:
0/5 (0 votes)

Hard to play? Try these video lessons and learn fast.
                -------------------------------------------------------------------------------
------------------------------------------------------------------------------

Tuning: Standard
Listen to record for timing

Bass:
G|---------------------------------------------------------------------------|
D|---------------------------------------------------------------------------|
A|---------------------------------------------------------------------------|
E|--1------1--1--------1--1---------1--1-------------------------------------|


G1:
e|---8---8---8---8---8---8---8---------------------8---8---8---8---8---8---8---8--|
B|---9---9---9---9---9---9---9---------------------9---9---9---9---9---9---9---9--|
G|--10--10--10--10--10--10--10--------------------10--10--10--10--10--10--10--10--|
D|--------------------------------------------------------------------------------|
A|--------------------------------------------------------------------------------|
E|--------------------------------------------------------------------------------|

G2:
e|--------------------------------------------------------------------------------|
B|--------------------------------------------------------------------------------|
G|--------------------------------------------------------------------------------|
D|-------------6--6--6--6--6------6--6--6--6--6-----------------------------------|
A|-----------------------------------------------------8----8----8----8----8------|
E|--------------------------------------------------------------------------------|

G3&4 (horns arr. for guitar) 1st ending:
e|----------------------------------------------------------------------------4---|
B|----------------------------------------------------------------------------6---|
G|----------------------------------------------------------------------------5---|
D|----------------------------------------------------------------------------3---|
A|--------------------------------------------------------------------------------|
E|--------------------------------------------------------------------------------|

G3&4 2nd ending:
e|--4--8--4--3--4-----------------------------------------------------------------|
B|--6--9--6--4--6-----------------------------------------------------------------|
G|--5--8--5--3--5-----------------------------------------------------------------|
D|--3--6--3--1--3-----------------------------------------------------------------|
A|--------------------------------------------------------------------------------|
E|--------------------------------------------------------------------------------|

G2 after solo (while horns play above):
e|--------------------------------------------------------------------------------|
B|--------------------------------------------------------------------------------|
G|--------------------------------------------------------------------------------|
D|----------6--6---------------------6--6-----------------------------------------|
A|--8--8------------8--8--6--8----8----------8--8--6--8---------------------------|
E|--------------------------------------------------------------------------------|


| /  slide up
| \  slide down
| h  hammer-on
| p  pull-off
| ~  vibrato
| +  harmonic
| x  Mute note
===============================================================================
            
Hard to play? Try these video lessons and learn fast. | Correct




comments powered by Disqus
↑ Back to top | Tablatures and chords are parodies/interpretations of the original songs. You may use it for private study, scholarship, research or language learning purposes only