» » »

Talking Heads, Memories Cant Wait Tabs (ver.1)

Artists:  A B C D E F G H I J K L M N O P Q R S T U V W X Y Z # 

Memories Cant Wait Tabs (ver.1)

Talking Heads Tabs
 Rating:
4/5 (4 votes)
Memories Cant Wait lessons Tabs too difficult? Try these video lessons and learn fast
                -------------------------------------------------------------------------------

Standard Tuning


  Do you remember anyone here...
|-----------------0---------------------------0-------------|
|-----------------0---------------------------0-------------|
|-----------------0---------------------------0-------------|
|-11--11--11--11--11--11------11--11--11--11--11------------|
|-11--11--11--11--11--11------11--11--11--11--11------------|
|-9---9---9---9---0---9-------9---9---9---9---0-------------|



  There's a party in my mind...
|--------------------------5-4------|
|------------------------------3----|
|-----2-------3-------4-------------|
|---2---2---2---2---2---2-----------|   
|-----------------------------------|
|-0-------0-------0--------0--------|



  Other people can go home...
|-2--2--3--3----|
|-4--4--5--5----|
|-4--4--3--3----|
|-4--4--5--5----|
|-2--2--3--3----|
|---------------|



  Everything is very quiet    Everyone has gone to sleep 
|-3--2--------0---------------3--0--0----------------------|
|-3--3--1--1--1---------------3--2--0----------------------|
|-0--4--2--0--0---------------0--2--1----------------------|
|-0--4--3--3--2---------------0--2--2------2--------2------|
|-2--2--3--3--3---------------2--0--2----2---2----2---2----|
|-3---------------------------3-----0--0--------0----------|



  I'm wide awake on memories     'cause memories can't wait
|-3--2--------0--------------------3--3--6--9---------------|
|-3--4--1--1--1--------------------3--2--5--8---------------|
|-0--4--2--0--0--------------------0--2--5--8---------------|
|-0--4--3--3--2--------------------0--2--5--8---------------|
|-2--2--3--3--3--------------------2--0--0------------------|
|-3--------------------------------3------------------------|



GTR 2  outro:
...wait, these memories can't... 
|---------------------------------------|
|-------5--8----------------------------|
|-4--6--5--8----------------------------|
|-5--7--5--8----------------------------|
|-5--7--3--6----------------------------|
|-3--5----------------------------------|
            
Submit corrections

comments powered by Disqus
↑ Back to top | Talking Heads Tabs for Memories Cant Wait. Lyrics for acoustic guitar and electric guitar. Tablatures and chords are parodies/interpretations of the original songs. You may use it for private study, scholarship, research or language learning purposes only