» » »

Drugs Bass tabs (ver.1)

Artists:  A B C D E F G H I J K L M N O P Q R S T U V W X Y Z # 

Drugs Bass tabs (ver.1)

Talking Heads
Rating:
0/5 (0 votes)

Hard to play? Try these video lessons and learn fast.
                TALKING HEADS - DRUGS
BASSIST: TINA WEYMOUTH

INTRO

E --4-4---2-3-4-------4-4----2-3-4----|
A ------------------------------------|
D ------------------------------------|
G ------------------------------------|

VERSE

E --4--4-2-3-4----------------4--4-2-3-4---------------|
A ---------------5-5-5-5-5------------------5-5-5-5-5--|
D ----6--------5----------------6---------5------------|
G -----------------------------------------------------|


VERSE

E --4--4-2-3-4----------------4--4-2-3-4---------------|
A ---------------5-5-5-5-5------------------5-5-5-5-5--|
D ----6--------5----------------6---------5------------|
G -----------------------------------------------------|

PROBABLY THE BEST BAND IN 80'S
ENJOY IT!

JAH WOBBLE IS GOD!
            
Hard to play? Try these video lessons and learn fast. | Correct




comments powered by Disqus
↑ Back to top | Tablatures and chords are parodies/interpretations of the original songs. You may use it for private study, scholarship, research or language learning purposes only