» » »

Burning Down The HouseSolo Tabs (ver.1)

Artists:  A B C D E F G H I J K L M N O P Q R S T U V W X Y Z # 

Burning Down The HouseSolo Tabs (ver.1)

Talking Heads
Rating:
0/5 (0 votes)
Tabs too difficult? Try these video lessons and learn fast.
                This is the weird guitar solo at around 1:53

E|-------------------------|
B|-------------------------|
G|-------------------------|
D|-----------5-----5-3-----|
A|---------5---5-----------|
E|--10\3-x-------3-----\1--|
    G                F

{little keyboard bit}

Guitar again at 2:02:

E|-------------------------|
B|-------------------------|
G|-------------------------|
D|-----------5-----5-3-----|
A|---------5---5-----------|
E|--10\3-x-------3-----\1--|
    G                F

2:07

E|---------------8/9--------------------|
B|---------------9/10-------------------|
G|---------------8/9--------------------|
D|------x-----5------------------3p2p0--|
A|--------------------------------------|
E|--5p3---5p3-----------1--1-1-1--------|
    G            A7     F

[Synth solo at 2:49]:

E|-----------------------------------------------------1-----------------3-|
B|----------3--1--------------3--1----------------3--1---------------3-1---|
G|-------0-----------------0-------2-----------0-------------------0-------|
D|----3-----------------3-------------3-------------------------3----------|
A|-------------------------------------------------------------------------|
E|-------------------------------------------------------------------------|
  G            F      G          F         G           G    F            G

E|-------5-------------------------------------------------3-1--5~b~b~b~8--|
B|--------6---8-------------3--1-----------------------3-1-----------------|
G|-----------------------0-------2-------------------0---------------------|
D|---------------------3--------------2bbb3--------3-----------------------|
A|-------------------------------------------------------------------------|
E|-------------------------------------------------------------------------|
    F         G   F  G          F     A7  F       G             F   G     F

E|------15~~~~~~~~-13------------------1----3---------5-----------------|
B|-------------------15------------3-1---1---3-----------------3-1------|
G|-------------------------------0---------------------------0-----2----|
D|-----------------------------3---------------------------3---------3--|
A|----------------------------------------------------------------------|
E|----------------------------------------------------------------------|
  G  F  G             G   F   G               F       G F  G

And then it fades out.
            
Tabs too difficult? Try these video lessons and learn fast.


comments powered by Disqus
↑ Back to top | Tablatures and chords are parodies/interpretations of the original songs. You may use it for private study, scholarship, research or language learning purposes only