» » »

Burning Down The House Bass tabs (ver.1)

Artists:  A B C D E F G H I J K L M N O P Q R S T U V W X Y Z # 

Burning Down The House Bass tabs (ver.1)

Talking Heads
Rating:
2/5 (3 votes)

Hard to play? Try these video lessons and learn fast.
                Band: Talking Heads
Bassist: Tina Weymouth

Q= quarter note
E= eigth note
S= sixteenth note
(the type of note is marked above the tab)

       E    S  S       E   E
g [---------------------]
d [-----5-5------5------]
a [---------------------]
e [--3---------3--------]

       E   S  S    E   E
g [--------------------]
d [----3-3-----3-------]
a [--------------------]
e [-1-------1----------]

x3

     E    S   S      E    S  S    E   S
g [----------------------------]
d [----5-5------7-7-----7------]
a [----------------------------]
e [-3--------5-------5---------]

x1

       E   S  S    E   E
g [--------------------]
d [----3-3-----3-------]
a [--------------------]
e [-1-------1----------]

x2
            
Hard to play? Try these video lessons and learn fast. | Correct




comments powered by Disqus
↑ Back to top | Tablatures and chords are parodies/interpretations of the original songs. You may use it for private study, scholarship, research or language learning purposes only