» » »

Air Bass tabs (ver.1)

Artists:  A B C D E F G H I J K L M N O P Q R S T U V W X Y Z # 

Air Bass tabs (ver.1)

Talking Heads
Rating:
5/5 (1 vote)

Hard to play? Try these video lessons and learn fast.
                TALKING HEADS- AIR

Intro:
G|--------------------|
D|--------------------|
A|--7--/4-7--3-----3--|
E|--------------/3----| (x4)


Verse 1:
G|--------------------|
D|--6-----6-----------|
A|-----/8----8-----8--|
E|--------------/8----| (x2)

G|----------------------|
D|----------------------|
A|--5---0-5-6-7----7-8--|
E|---------------7------|

G|--------------------|
D|--6-----6-----------|
A|-----/8----8-----8--|
E|--------------/8----| (x2)


Pre-Chorus:
G|------------------------------------------|
D|--------2---2----------3--0-2-3--3---2-0--|
A|--3-------3------3------------------------|
E|------------------------------------------|

G|-------------------------5-6--|
D|-----------------3---5-7------|
A|--3---0-1-3-------------------|
E|------------------------------|

G|--7-------7----------5-6-7-------7----------5-6-7-----5--------------------|
D|--------7--------5-7-----------7--------5-7-------------7------------------|
A|-------------0----------------------0----------------------0-0-2-2-3-3-5-5-|
E|---------------------------------------------------------------------------|

G|--5---5-7--9-7----5---5-7--|
D|---------------------------|
A|---------------------------|
E|---------------------------|


Chorus:
G|--------------------|
D|--------------------|
A|--7--/4-7--3-----3--|
E|--------------/3----| (x4)


Verse 2:
G|--------------------|
D|--6-----6-----------|
A|-----/8----8-----8--|
E|--------------/8----| (x2)

G|----------------------|
D|----------------------|
A|--5---0-5-6-7----7-8--|
E|---------------7------|

G|--------------------|
D|--6-----6-----------|
A|-----/8----8-----8--|
E|--------------/8----| (x2)


Pre-Chorus:
G|------------------------------------------|
D|--------2---2----------3--0-2-3--3---2-0--|
A|--3-------3------3------------------------|
E|------------------------------------------|

G|-------------------------5-6--|
D|-----------------3---5-7------|
A|--3---0-1-3-------------------|
E|------------------------------|

G|--7-------7----------5-6-7-------7----------5-6-7-----5--------------------|
D|--------7--------5-7-----------7--------5-7-------------7------------------|
A|-------------0----------------------0----------------------0-0-2-2-3-3-5-5-|
E|---------------------------------------------------------------------------|

G|--5---5-7--9-7----5---x-7--|
D|---------------------------|
A|---------------------------|
E|---------------------------|


Chorus:
G|--------------------|
D|--------------------|
A|--7--/4-7--3-----3--|
E|--------------/3----| (x4)


Guitar Solo/Outro:
G|--------------------|
D|--------------------|
A|--7--/4-7--3-----3--|
E|--------------/3----| (x16)
            
Hard to play? Try these video lessons and learn fast. | Correct




comments powered by Disqus
↑ Back to top | Tablatures and chords are parodies/interpretations of the original songs. You may use it for private study, scholarship, research or language learning purposes only