>
 >
Try Honesty

Try Honesty Guitar Tabs

Talent Billy - Try Honesty chords, tabs, tablatures, lyrics

Guitar lessons | Add/correct | Request | Top 50 tabs Artists:  A B C D E F G H I J K L M N O P Q R S T U V W X Y Z 0-9

Try Honesty Guitar Tabs – Talent Billy

CD, Sheet music, Poster

Do you like Try Honesty? Share with your friends now
Tabs
BILLY TALENT - Try Honesty

'drop D tuning'

This is the riff at the start.
RIFF 1:

e|--------------------------------------0-------0-------0-------0--|
B|------2-------2-------2-------2----------------------------------|
G|--------2-------2-------2-------2---2---2---2---2---4---4---6---6|
D|---0--------0-------2-------2-----4-------4-------6-------7------|
A|-2--------2-------0-------0--------------------------------------|
D|-----------------------------------------------------------------|



e|0-0-000000--0-0-000000--------------7-|
B|2-2-222222--2-2-222222----5---------7-|
G|2-2-222222--2-2-222222-----6--------7-|
D|x-x-xxxxxx--2-2-222222--4---7-6-7/4---| repeat this
A|2-2-222222--0-0-000000--4-----0-------|
D|------------------------4-----0-------|

try and let the low D string chords ring out as you play the little 
riff over it.

VERSE:

e|-----------------------------7-------------7-------------7-------------7-|
B|-------------------5---------7---5---------7---5---------7---5---------7-|
G|--------------------6--------7----6--------7----6--------7----6--------7-|
D|-4-0-4-0-4-0-4-0-4---7-6-7/4---4---7-6-7/4---4---7-6-7/4---4---7-6-7/4---|
A|-4-0-4-0-4-0-4-0-4-----0-------4-----0-------4-----0-------4-----0-------|
D|-4-0-4-0-4-0-4-0-4-----0-------4-----0-------4-----0-------4-----0-------|

CHORUS:

e|0-0-000000--0-0-000000-------------------|
B|2-2-222222--2-2-222222-------------------|
G|2-2-222222--2-2-222222-------------------|
D|x-x-xxxxxx--2-2-222222--7776664466644422-| repeat this
A|2-2-222222--0-0-000000--4444444422222222-|
D|------------------------4444444422222222-|


MIDDLE:
('^' means bend up, '~' means vibrato) 

e|-----5^------9^------5^-----------------5^------9^------5^----------|
B|-----5^------7^------5^-----------------5^------7^------5^----------|
G|-----5^------7^------5^------4~-2-------5^------7^------5^------4~-2|
D|4444----0000----3333----0000-2~-0--4444----0000----3333----0000-2~-0|
A|4444----0000----3333----0000-------4444----0000----3333----0000-----|
D|4444----0000----3333----0000-------4444----0000----3333----0000-----|

-
e|------------------------------------------------------------------------------------------|
B|------------------------------------------------------------------------------------------|
G|---------2---------------------------------------------2----------------------------------|
D|-4-4-2-4-2-4-2-0-0-7~-0-3-3-2-3-5-3-2-0-0-4~-2-4-4-2-4-2-4-2-0-0-7~-0-3-3-2-3-5-3-2-0-4~-2|
A|-4-4-2-4-0-4-2-0-0-5~-0-3-3-2-3-5-3-2-0-0-2~-0-4-4-2-4-0-4-2-0-0-5~-0-3-3-2-3-5-3-2-0-2~-0|
D|-4-4-2-4---4-2-0-0----0-3-3-2-3-5-3-2-0-0------4-4-2-4---4-2-0-0----0-3-3-2-3-5-3-2-0-----|

e|--------------------------------------------------------|
B|--------------------------------------------------------|
G|---------2------------------------------------------4444|
D|-4-4-2-4-2-4-2-0-0-7~-0-------------33334444666677770000| 
A|-4-4-2-4-0-4-2-0-0-5~-0-33335555777733330000000000000000|
D|-4-4-2-4---4-2-0-0----0-33333333333333330000000000000000|

After this bit, Ian plays Riff 1 again and then the chorus. After the chorus
the guitar adds this vibrato to the chorus chords:

e|0--0--0--0----0--0--0--0--------------------|
B|2v-2v-2v-2v---2v-2v-2v-2v-------------------|
G|2v-2v-2v-2v---2v-2v-2v-2v-------------------|
D|x--x--x--x----2v-2v-2v-2v--7776664466644422-| repeat this
A|2--2--2--2----0--0--0--0---4444444422222222-|
D|---------------------------4444444422222222-|


Thats pretty much the whole song.





Comments


Popular Talent Billy tabs & chords
Try Honesty 1 Bass Tabs
Cut The Curtains Tabs
River Below Tabs
This Is How It Goes Tabs


Song lyrics



↑ Back to top | Tablatures and chords are parodies/interpretations of the original songs. You may use it for private study, scholarship, research or language learning purposes only
© 2014 AZChords.com Contact us | Privacy policy | DMCA | Add/correct tabs | Request tabs | Top 50 tabs