>
 >
High Above Me

High Above Me Guitar Tabs

Tal Bachman - High Above Me chords, tabs, tablatures, lyrics

Guitar lessons | Add/correct | Request | Top 50 tabs Artists:  A B C D E F G H I J K L M N O P Q R S T U V W X Y Z 0-9

High Above Me Guitar Tabs – Tal Bachman

CD, Sheet music, Poster

Do you like High Above Me? Share with your friends now
Tabs
                                 High Above Me
                                  Tal Bachman
b  = bend
br = bend release
x  = palm mute
                                            
guitar 1
e|-----5-7---5-------5---7---9-7-5--|
B|---5-----------5------------------|
G|----------------------------------|
D|-7--------------------------------|
A|----------------------------------|
E|----------------------------------|

guitar 2
e|----------------------------------|
B|----------------------------------|
G|----------------------------------|
D|-7-7-7-7-7-7-7-7-7-7-7-7-7-7-7-7--|
A|---------9-9-9-9-7-7-7-5-5-5-5-5--|
E|----------------------------------|

play 6 times

guitar 1
e|-----4-5-4-2--------------|
B|-5-5-------3--------------|
D|-----------2--------------|
G|--------------------------|
A|--------------------------|
E|--------------------------|

guitar 2
e|-----------2--------------|
B|-----------3--------------|
D|-----1-2-1-2--------------|
G|-2-2----------------------|
A|--------------------------|
E|--------------------------|

guitar 1
e|-----5-7---5-------5---7---9-7-5--|
B|---5-----------5------------------|
D|----------------------------------|
G|-7--------------------------------|
A|----------------------------------|
E|----------------------------------|

guitar 2
e|----------------------------------|
B|----------------------------------|
D|----------------------------------|
G|-7-7-7-7-7-7-7-7-7-7-7-7-7-7-7-7--|
A|---------9-9-9-9-7-7-7-5-5-5-5-5--|
E|----------------------------------|

guitar 1
e|-----4-5-4-2--------------|
B|-5-5-------3--------------|
D|-----------2--------------|
B|--------------------------|
A|--------------------------|
E|--------------------------|

guitar 2
e|-----------2--------------|
B|-----------3--------------|
D|-----1-2-1-2--------------|
G|-2-2----------------------|
A|--------------------------|
E|--------------------------|

guitar 1
e|--------------------------------------------------|
B|--------------------------------------------------|
D|-5-5-5-5-5-5-5-5-1-1-1-1-1-1-1-1-1-1-1-1-1-1-1-1--|
G|-5-5-5-5-5-5-5-5-2-2-2-2-2-2-2-2-2-2-2-2-2-2-2-2--|
A|-3-3-3-3-3-3-3-3-2-2-2-2-2-2-2-2-2-2-2-2-2-2-2-2--|
E|--------------------------------------------------|


Chorus
         Bm   D      A
She's so high,  high above me.
         E
She's so lovley.
         Bm   D      A
She's so high,  like Cleopatra,
         E                 Bm  D  A  E
Joan of Arc or Aphrodite.
         Bm   D
She's so high,  high above me.

Verse 2

guitar 1
e|-----5-7----5-------5---7----9-7-5--|
B|---5------------5-------------------|
D|------------------------------------|
G|-7----------------------------------|
A|------------------------------------|
E|------------------------------------|

guitar 2
e|-0---0---------------------2---2-----|
B|-2---2---------------------3---3-----|
D|-2---2----3---3--3--1--1---2---2-----|
G|-2---2----4---4--4--2--2---0---0-----|
A|-0---0----4---4--4--2--2-------------|
E|----------2---2--2-------------------|

play 4 times


guitar 1
e|-----------------2-|
B|-----------------3-|
D|-1--1--1--1---1--2-|
G|-2--2--2--2---2--0-|
A|-2--2--2--2---2----|
E|-------------------|

guitar 2
e|-----------------2-|
B|-----------------3-|
D|-------1--2---1--2-|
G|-2--2------------0-|
A|-------------------|
E|-------------------|

guitar 1
e|-----5-7----5-------5---7----9-7-5--|
B|---5------------5-------------------|
D|------------------------------------|
G|-7----------------------------------|
A|------------------------------------|
E|------------------------------------|

guitar 2
e|-0---0---------------------2---2-----|
B|-2---2---------------------3---3-----|
D|-2---2----3---3--3--1--1---2---2-----|
G|-2---2----4---4--4--2--2---0---0-----|
A|-0---0----4---4--4--2--2-------------|
E|----------2---2--2-------------------|

guitar 1
e|-----------------2-|
B|-----------------3-|
D|-1--1--1--1---1--2-|
G|-2--2--2--2---2--0-|
A|-2--2--2--2---2----|
E|-------------------|

guitar 2
e|-----------------2-|
B|-----------------3-|
D|-------1--2---1--2-|
G|-2--2------------0-|
A|-------------------|
E|-------------------|

guitar 1
e|--------------------------------------------------|
B|--------------------------------------------------|
D|-5-5-5-5-5-5-5-5-1-1-1-1-1-1-1-1-1-1-1-1-1-1-1-1--|
G|-5-5-5-5-5-5-5-5-2-2-2-2-2-2-2-2-2-2-2-2-2-2-2-2--|
A|-3-3-3-3-3-3-3-3-2-2-2-2-2-2-2-2-2-2-2-2-2-2-2-2--|
E|--------------------------------------------------|

Chorus
         Bm   D      A
She's so high,  high above me.
         E
She's so lovley.
         Bm   D      A
She's so high,  like Cleopatra,
         E                 Bm  D  A  E
Joan of Arc or Aphrodite.
         Bm   D
She's so high,  high above me.


Solo:
e|-------------------------------------------------------------------------|
B|--12b14-14br12----12b14-14br12------12b14-14nr12--------10-12-14b15br14--|
D|---------------12--------------11-----------------10-12------------------|
G|-------------------------------------------------------------------------|
A|0------------------------------------------------------------------------|
E|-------------------------------------------------------------------------|

e|-------------------17b19br17---12-14-15----------------------------------|
B|-----17-15-14---------------------------12b13br--------------------------|
D|-14-----------14--------------------------------14-----------------------|
G|-------------------------------------------------------------------------|
A|-------------------------------------------------------------------------|
E|-------------------------------------------------------------------------|


Verse 3

guitar 1
e|-----5-7---5-------5---7---9-7-5--|
B|---5-----------5------------------|
D|----------------------------------|
G|-7--------------------------------|
A|----------------------------------|
E|----------------------------------|

guitar 2
e|----------------------------------|
B|----------------------------------|
D|----------------------------------|
G|-7-7-7-7-7-7-7-7-7-7-7-7-7-7-7-7--|
A|---------9-9-9-9-7-7-7-5-5-5-5-5--|
E|----------------------------------|

play 4 times

guitar 1
e|-----4-5-4-2--------------|
B|-5-5-------3--------------|
D|-----------2--------------|
G|--------------------------|
A|--------------------------|
E|--------------------------|

guitar 2
e|-----------2--------------|
B|-----------3--------------|
D|-----1-2-1-2--------------|
G|-2-2----------------------|
A|--------------------------|
E|--------------------------|

guitar 1
e|-----5-7---5-------5---7---9-7-5--|
B|---5-----------5------------------|
D|----------------------------------|
G|-7--------------------------------|
A|----------------------------------|
E|----------------------------------|

guitar 2
e|----------------------------------|
B|----------------------------------|
D|----------------------------------|
G|-7-7-7-7-7-7-7-7-7-7-7-7-7-7-7-7--|
A|---------9-9-9-9-7-7-7-5-5-5-5-5--|
E|----------------------------------|

guitar 1
e|-----4-5-4-2--------------|
B|-5-5-------3--------------|
D|-----------2--------------|
G|--------------------------|
A|--------------------------|
E|--------------------------|

guitar 2
e|-----------2--------------|
B|-----------3--------------|
D|-----1-2-1-2--------------|
G|-2-2----------------------|
A|--------------------------|
E|--------------------------|

guitar 1
e|--------------------------------------------------|
B|--------------------------------------------------|
D|-5-5-5-5-5-5-5-5-1-1-1-1-1-1-1-1-1-1-1-1-1-1-1-1--|
G|-5-5-5-5-5-5-5-5-2-2-2-2-2-2-2-2-2-2-2-2-2-2-2-2--|
A|-3-3-3-3-3-3-3-3-2-2-2-2-2-2-2-2-2-2-2-2-2-2-2-2--|
E|--------------------------------------------------|

Chorus
         Bm   D      A
She's so high,  high above me.
         E
She's so lovley.
         Bm   D      A
She's so high,  like Cleopatra,
         E                 Bm  D  A  E
Joan of Arc or Aphrodite.
         Bm   D
She's so high,  high above me.

guitar 1
e|-----5-7---5-------5---7---9-7-5--5--|
B|---5-----------5------------------5--|
D|----------------------------------x--|
G|-7--------------------------------7--|
A|-------------------------------------|
E|-------------------------------------|

guitar 2
e|----------------------------------5--|
B|----------------------------------5--|
D|----------------------------------x--|
G|-7-7-7-7-7-7-7-7-7-7-7-7-7-7-7-7--7--|
A|---------9-9-9-9-7-7-7-5-5-5-5-5-----|
E|-------------------------------------|

Comments, Questions? wanna bash me for this tab? then email at





Comments


Popular Tal Bachman tabs & chords
Aeroplane 1 Chords
Aeroplane 2 Chords
If You Sleep Chords
She's So High Chords
She's So High 1 Chords
Shes So High 2 Chords
Aeroplane Tabs
She's So High 1 Tabs
Shes So High 3 Tabs
If You Sleep Ukulele


Song lyrics



↑ Back to top | Tablatures and chords are parodies/interpretations of the original songs. You may use it for private study, scholarship, research or language learning purposes only
© 2014 AZChords.com Contact us | Privacy policy | DMCA | Add/correct tabs | Request tabs | Top 50 tabs