» » »

Your So Last Summer Bass tabs (ver.1)

Artists:  A B C D E F G H I J K L M N O P Q R S T U V W X Y Z # 

Your So Last Summer Bass tabs (ver.1)

Taking Back Sunday
Rating:
0/5 (0 votes)

Hard to play? Try these video lessons and learn fast.
                This is my first tab so it may not be all that great, but it sounds good to me.
           Intro/verse           
G----------------------------------------------------
D------------7------7---7---7---------------6h7p6----
A-444---555--555---5--5---5-------------------------
E----------------------------------------------------
                    verse Continued
G--------------------------------------------------
D--------------------------------------------------
A-2222222222222222--4h5p4---55555555-5555----------
E--------------------------------------------------
                 Chorus
G---------------------------------------------------------------------------
D---------------------------------------------------------------------------
A-5555555555555555-9999999999999999-2222222222222222------------------------
E-------------------------------------------------------3333333333333333----

Verse 2x
Chorus2x

          Bridge
G--------------------------------
D---------------------6h7p6---10-
A-444-000-555555------------7----
E--------------------------------

G----------------------------------
D-----------------------------------
A-2222-------2222-----555555--------22222
E-------33333--------------------33333

G---------------------------------------------
D-00004h5p4-0-7------------------------
A-------------------4444-5h7p5-2-0-----
E-----------------------------------------------
            
Hard to play? Try these video lessons and learn fast. | Correct




comments powered by Disqus
↑ Back to top | Tablatures and chords are parodies/interpretations of the original songs. You may use it for private study, scholarship, research or language learning purposes only