>
 >
You're So Last Summer 2

You're So Last Summer 2 Guitar Tabs

Taking Back Sunday - You're So Last Summer 2 chords, tabs, tablatures, lyrics

Guitar lessons | Add/correct | Request | Top 50 tabs Artists:  A B C D E F G H I J K L M N O P Q R S T U V W X Y Z 0-9

You're So Last Summer 2 Guitar Tabs – Taking Back Sunday

CD, Sheet music, Poster

Do you like You're So Last Summer 2? Share with your friends now
Bass TabsTabsTabs v2Tabs v3
this is my first tab so i hope its good
Intr p.m.
e|------------------------------------------------------------------
B|------------------------------------------------------------------
G|------------------------------------------------------------------
D|-222222222222222-222222222222222-222222222222222-222222222222222--
A|----------------3---------------3--------------3----------------3-
E|----------------1---------------1--------------1----------------1-
Verse p.m.(guitar 1)                                                   End of 2nd time 
e|------------------------------------------------------------------     e|------
B|------------------------------------------------------------------     B|------
G|-666777777777777-6667777777777777--------------------------------- X2  G|------
D|-6667777777777777666777777777777799999999999999995555555555555555-     D|-5555-
A|-4445555555555557444555555555555599999999999999995555555555555555-     A|-5555-
E|----------------5----------------77777777777777773333333333333333-     E|-3333-

Verse (clean) (guitar 2)
e|-5-2-0-2—-5-2-12-0- 
B|--3-3------3-3-----
G|------------------- X2
D|-------------------
A|-------------------
E|-------------------

Chorus (distortion)
e|------------------------------------
B|------------------------------------
G|-77777777--------------------------- X2
D|-77777777-44444444-99999999-55555555
A|-55555555-44444444-99999999-55555555
E|----------22222222-77777777-33333333
Chorus (distortion (guitar 2)
e|---------------------------------
B|--------------------------------- (listen for it when guitar 1 plays the
G|--------------------------------- D chords, F# chords and B chords in the chorus)
D|---------------------------------
A|--5-4-2-0-----0-2-4-5----2-4-4-5-
E|------------2--------------------


Verse
Chorus

Bridge 1 p.m. (guitar 1)
e|-----------------10 (let off p.m. on this note)
B|------------------
G|-666---7777777777- X2
D|-6667777777777777-
A|-4447775555555555-
E|----555-----------

Bridge 1 (guitar 2) (distortion)
e|-5-2-0-2---5-2-12-0-
B|--3-3-------3-3----- 
G|--------------------
D|--------------------
A|--------------------
E|--------------------

Bridge 2 (distortion)
e|---------------------------------
B|---------------------------------
G|---------------------------------
D|-44444-44444-444-99999-99999-999-
A|-44444-44444-444-99999-99999-999-
E|-22222-22222-222-77777-77777-777-

Bridge 3 (distortion)
e|------------------------------------
B|------------------------------------
G|-77777777--------------------------- X4
D|-77777777-77777777-99999999-55555555
A|-55555555-77777777-99999999-55555555
E|----------55555555-77777777-33333333

Outro  (guitar 1) (distortion)
e|-----------5---5
B|----------------
G|----------------
D|-000000000—-00--
A|----------------
E|----------------

e|---
B|---
G|-7- End on
D|-7-
A|-5-
E|---

Intro
Verse
Chorus
Verse (guitar 2 plays the same thing as guitar 1 in this verse)
Chorus
Bridge 1
Bridge 2
Bridge 1
Bridge 2
Bridge 3
Outro





Comments


Popular Taking Back Sunday tabs & chords
There Is No I In Team Bass Tabs
Slowdance On The Inside Chords
A Decade Under The Influence 1 Tabs
Error Operator 5 Tabs
Makedamnsure 5 Tabs
The Blue Channel (Intro) Tabs
This Is All Now 1 Tabs
This Photograph Is Proof 1 Tabs
Makedamnsure Ukulele
Whats It Feel Like To Be A Ghost Ukulele


Song lyrics



↑ Back to top | Tablatures and chords are parodies/interpretations of the original songs. You may use it for private study, scholarship, research or language learning purposes only
© 2014 AZChords.com Contact us | Privacy policy | DMCA | Add/correct tabs | Request tabs | Top 50 tabs