» » »

You Know How I Do Tabs (ver.3)

Artists:  A B C D E F G H I J K L M N O P Q R S T U V W X Y Z # 

You Know How I Do Tabs (ver.3)

Taking Back Sunday
Rating:
0/5 (0 votes)

Hard to play? Try these video lessons and learn fast.
                Intro and Verse
                                     
Guitar 1
|-----------------------------|
|--0-0-0-0-0-0--0-0-0--0-0-0--|
|--4-4-4-4-4-4/-6-6-6/-8-8-8--|
|-----------------------------|  x12
|-----------------------------|
|-----------------------------|

Guitar 2
|-------------------------------------|
|-------------4-----------------------|
|--4-----4----------------------------|
|--4-------4------4-----------4-------|
|--2--------------2-----2-----2----2--|
|-----------------------0----------0--|

Chrous

Guitar 1
|----------------------------------------------------------|
|--0-0-0-0-0-0-0-0-0-0-0-0-0--0-0-0-0-0-0-0-0-0-0-0-0-0-0--|
|--4-4-4-4-4-4-4-4-4-6-6-4-4--4-4-4-4-4-4-4-4-4-4-6-6-4-4--|
|----------------------------------------------------------|  x2
|----------------------------------------------------------|
|----------------------------------------------------------|

Guitar 2
|-----------------------------------------------------------|
|-----------------------------------------------------------|
|-----------------------------------------------------------|
|--4-4-4-4-4-4-4-4-4-4-4-4-4-4------------------------------|  x2
|--2-2-2-2-2-2-2-2-2-2-2-2-2-2-2-2-2-2-2-2-2-2-2-2-2-2-2-2--|
|------------------------------0-0-0-0-0-0-0-0-0-0-0-0-0-0--|

Verse 2- Guitar 1
|-----------------------------|
|--0-0-0-0-0-0--0-0-0--0-0-0--|
|--4-4-4-4-4-4/-6-6-6/-8-8-8--|
|-----------------------------|  x12
|-----------------------------|
|-----------------------------|

Guitar 2-
|----------------|
|--4------4---4--|
|--4----4---4----|  
|--4--4----------|  x12
|--2-------------|
|----------------|

Chorus 2- Same as Chorus 1 but end on this
|---------------------------|
|---------------------------|
|---------------------------|
|--4-4-4-4-4-2-2-2-2-24-----|
|--2-2-2-2-2-0-0-0-0-02-2~--|
|-----------------------0~--|

Bridge- is played on piano

Outro

Guitar 1
|------------------------------|
|------------------------------|
|------------------------------|
|--------7h9-------7h9----5h7--|  x4
|-----7h9-------7h9----5h7-----|
|--7h9-------5h7---------------|

Guitar 2
|--------------------------------------------------|
|--------------------------------------------------|
|--------------------------------------------------|
|----------------------6-6-6-6-4-4-4-4-------------|  x4
|--2-2-2-2-2-7-7-7-7-7-4-4-4-4-2-2-2-2-7-7-7-7-7-7-|
|--0-0-0-0-0-5-5-5-5-5-----------------5-5-5-5-5-5-|
            
Hard to play? Try these video lessons and learn fast. | Correct




comments powered by Disqus
↑ Back to top | Tablatures and chords are parodies/interpretations of the original songs. You may use it for private study, scholarship, research or language learning purposes only