>
 >
Youe So Last Summer

Youe So Last Summer Guitar Tabs

Taking Back Sunday - Youe So Last Summer chords, tabs, tablatures, lyrics

Guitar lessons | Add/correct | Request | Top 50 tabs Artists:  A B C D E F G H I J K L M N O P Q R S T U V W X Y Z 0-9

Youe So Last Summer Guitar Tabs – Taking Back Sunday

CD, Sheet music, Poster

Do you like Youe So Last Summer? Share with your friends now
Tabs
Intro/Verse:
 e|---------------------------------------------------------------------|
 B|---------------------------------------------------------------------|
 G|---------------------------------------------------------------------|
 D|--777/777777777777---777/77777777777---777/77777777---777/77777777---|
 A|--444/5555555555550--444/555555555550--444/555555550--444/555555550--|
 E|---------------------------------------------------------------------|

 e|------------------------------------------------------------------------|
 B|------------------------------------------------------------------------|
 G|------------------------------------------------------------------------|
 D|--777/777777777777--777/77777777777--4444444444444444-5555555555555555--|
 A|--444/555555555555--444/55555555555--2222222222222222-5555555555555555--|
 E|------------------------------------------------------3333333333333333--|

   Verse: Guitar Two: This sounds very close...
 e|---------------|----------10--|
 B|--10p7-7---7---|---10p7-9-----|
 G|---------9-----|--------------| listen carefully to hear where these fit in
 D|---------------|--------------| (right after "she said" and "boys like you are a 
 A|---------------|--------------| dime...." first time and "she said" and "your a 
 E|---------------|--------------| lush and i hate..." second time)

   Chorus: "and all i.... need to know..."
 e|-------------------------------------------------|
 B|-------------------------------------------------|
 G|--77777777--------------------44444444-----------|
 D|--77777777-----------77777777-44444444-55555555--|
 A|--55555555-4444-0000-77777777-22222222-55555555--|
 E|---------------------55555555----------33333333--|

   Bridge: Guitar One:
 e|--------------------------------------------------------------------|
 B|--------------------------------------------------------------------|
 G|---------------------------------------------------44444-44444-444--|
 D|--777777777777777--77777777777777--44444-44444-444-44444-44444-444--|
 A|--444005555555555--44400555555555--44444-44444-444-22222-22222-222--|
 E|-----------------------------------22222-22222-222------------------|
 e|--------------------------------------------------------------------|

   Bridge: Guitar Two:
 e|---------------|----------10--|
 B|--10p7-7---7---|---10p7-9-----|
 G|---------9-----|--------------| more distortion than in the verse
 D|---------------|--------------|
 A|---------------|--------------|
 E|---------------|--------------|

   Bridge 2: Guitar Two: "If i'm just bad news, then you're a liar"
 e|---------------------------------------|
 B|---------------------------------------|
 G|--77777777-----------------------------|
 D|--77777777-77777777-99999999-55555555--|
 A|--55555555-77777777-99999999-55555555--|
 E|-----------55555555-77777777-33333333--|

   Bridge 2: Guitar Two:
 e|-----------------------------------------|--------------------------|
 B|-----------------------------------------|--------------------------|
 G|--141414141414-12/11/9-77777777----------|-777777-1414141414141414--|
 D|---x-x-x-x-x-x--x--x-x-xxxxxxxx--x3 then-|-xxxxxx--x-x-x-x-x-x-x-x--|
 A|--121212121212-10/-9/7-55555555----------|-555555-1212121212121212--|
 E|-----------------------------------------|--------------------------|

   Outro: Guitar One: strum every now and then....
 e|-----|
 B|-----|
 G|--7--|
 D|--7--|
 A|--5--|
 E|-----|

   Outro: Guitar Two: repeat this, just follow the song
 e|--------------------|
 B|--10-7--10-7--10-7--|
 G|--------------------|
 D|--------------------|
 A|--------------------|
 E|--------------------|





Comments


Popular Taking Back Sunday tabs & chords
The Ballad Of Sal Villanueva 2 Bass Tabs
Best Places To Be A Mom Chords
Divine Intervention Chords
My Blue Heaven Chords
New American Classic Chords
Where My Mouth Is Chords
Divine Intervention Tabs
Error Operator 3 Tabs
Makedamnsure 2 Tabs
What It Feels Like To Be A Ghost Intro Tabs


Song lyrics



↑ Back to top | Tablatures and chords are parodies/interpretations of the original songs. You may use it for private study, scholarship, research or language learning purposes only
© 2014 AZChords.com Contact us | Privacy policy | DMCA | Add/correct tabs | Request tabs | Top 50 tabs