» » »

Twenty-twenty Surgery Bass tabs (ver.1)

Artists:  A B C D E F G H I J K L M N O P Q R S T U V W X Y Z # 

Twenty-twenty Surgery Bass tabs (ver.1)

Taking Back Sunday
Rating:
0/5 (0 votes)

Tabs too difficult? Try these video lessons and learn fast.
                Intro x2
G-------------------------------|
D-------------------------------|
A---------------------777777777-|
E-111111111-444444444-----------|

Verse X4
G-----------------|
D-----------------|
A---344-4----4-3--|
E-11-----44-4-----|

Pre verse X1
G-----------------------------------|
D-----------------------------------|
A-4444444444444444-6666666666666666-|
E-----------------------------------|

Verse X4
G-----------------|
D-----------------|
A---344-4----4-3--|
E-11-----44-4-----|

Pre verse X1
G-----------------------------------|
D-----------------------------------|
A-4444444444444444-6666666666666666-|
E-----------------------------------|

G-----------------------------------|
D-----------------------------------|
A-8888888888888888-1010101010101010-|
E-----------------------------------|

Chorus X2 
G--------------------------------------------------|
D--------------------------------------------------|
A-----------------3333333333333333-----------------|
E-4444444444444444----------------1111111111111111-|

Then
G--------------------------------------------------|
D--------------------------------------------------|
A-----------------33333333333333333333333333333333-|
E-4444444444444444---------------------------------|

Verse X4
G-----------------|
D-----------------|
A---344-4----4-3--|
E-11-----44-4-----|

Pre verse X1
G-----------------------------------|
D-----------------------------------|
A-4444444444444444-6666666666666666-|
E-----------------------------------|

G-----------------------------------|
D-----------------------------------|
A-8888888888888888-1010101010101010-|
E-----------------------------------|

Chorus
G--------------------------------------------------|
D--------------------------------------------------|
A-----------------3333333333333333-----------------|
E-4444444444444444----------------1111111111111111-|

G--------------------------------------------------|
D--------------------------------------------------|
A-----------------33333333333333333333333333333333-|
E-4444444444444444---------------------------------|


G-------------------------------|
D-------------------------------|
A---------------------777777777-|
E-111111111-444444444-----------|

G-------------------------------|
D-------------------------------|
A-------------------------------|
E-111111111-4444444444444444444-|

Breakdown
G-------------------------|
D-------------------------|
A-------------------------|
E-11-1-1—-11-1-1--11-1-1>>|

Chorus
G--------------------------------------------------|
D--------------------------------------------------|
A-----------------3333333333333333-----------------|
E-4444444444444444----------------1111111111111111-|
     ^
Then 4>>

Ending
G--------------------------------------------------|
D--------------------------------------------------|
A-----------------3333333333333333-----------------|
E-1111111111111111----------------4444444444444444-|

G---------------------------------------|
D---------------------------------------|
A------------------333333333333333------|
E-11111111111111111---------------------|
            
Tabs too difficult? Try these video lessons and learn fast.


comments powered by Disqus
↑ Back to top | Tablatures and chords are parodies/interpretations of the original songs. You may use it for private study, scholarship, research or language learning purposes only