» » »

Taking Back Sunday, The Things We'll Never Know Tabs (ver.1)

Artists:  A B C D E F G H I J K L M N O P Q R S T U V W X Y Z # 

The Things We'll Never Know Tabs (ver.1)

Taking Back Sunday Tabs
 Rating:
4/5 (4 votes)
The Things We'll Never Know lessons Tabs too difficult? Try these video lessons and learn fast
1
                This tab is 98% correct. Its missing some of the lead guitar parts and the bridge is kinda rugged but it still sounds awesome. Trust me. Please rate it.

Intro:

E|------------------------|
B|------------------------|
G|--11-11-11-11-11-11-11--|
D|---0--0--0--0--0--0--0--|
A|------------------------|
E|------------------------|

Verse:

E|-------------------------------------------|
B|-------------------------------------------|
G|--11-11-11-11-11-11-11-11-7-7-7-7-7-7-7-7--|
D|---x--x--x--x--x--x--x--x-x-x-x-x-x-x-x-x--| x3
A|---9--9--9--9--9--9--9--9-5-5-5-5-5-5-5-5--|
E|-------------------------------------------|

E|---------------------------|
B|---------------------------|
G|--11-11-11-11-11-11-11-11--|
D|---x--x--x--x--x--x--x--x--|
A|---9--9--9--9--9--9--9--9--|
E|---------------------------|

Chorus:

E|---------------------------------------------|
B|---------------------------------------------|
G|--16-16/14-14----------16-16/14-14--7-7-7-7--|
D|---x--x/-x--x--9-9-9-9--x--x/-x--x--7-7-7-7--| x2
A|--14-14/12-12--9-9-9-9-14-14/12-12--5-5-5-5--|
E|---------------7-7-7-7-----------------------|

On the 2nd time, hold out the x577xx

Pre-Verse:

SAME AS INTRO, THEN A PICKSLIDE

Verse:

E|-------------------------------------------|
B|-------------------------------------------|
G|--7-7-7-7-7-7-7-7-11-11-11-11-11-11-11-11--|
D|--x-x-x-x-x-x-x-x--x--x--x--x--x--x--x--x--| x3
A|--5-5-5-5-5-5-5-5--9--9--9--9--9--9--9--9--|
E|-------------------------------------------|

E|-------------------------------------------|
B|-------------------------------------------|
G|--6-6/7-7/6-6/7-7-11-11-11-11-11-11-11-11--|
D|--x-x/x-x-x-x-x-x--x--x--x--x--x--x--x--x--|
A|--4-4/5-5/4-4/5-5--9--9--9--9--9--9--9--9--|
E|-------------------------------------------|

Chorus:

E|-----------------------------------------------|
B|-----------------------------------------------|
G|-7*/16-16/14-14----------16-16/14-14--7-7-7-7--|
D|-x*/-x--x/-x--x--9-9-9-9--x--x/-x--x--7-7-7-7--| x2
A|-5*/14-14/12-12--9-9-9-9-14-14/12-12--5-5-5-5--|
E|-----------------7-7-7-7-----------------------|

* = First time only

Interlude/Bridge:

E|-----------5- -------0--------0--------0-----------|
B|--7--7--4--5- -7--4--2--7--4--2--7--4--2--7--4--7--|
G|--7--7--4--6- -7--4--2--7--4--2--7--4--2--7--4--7--|
D|--7--7--4--7- -7--4--2--7--4--2--7--4--2--7--4--7--|
A|--5--4--2--7- -5--2--0--5--2--0--5--2--0--5--2--5--|
E|-----------5- -------------------------------------|

                 ^
Lyrics kick in here. Pick strings randomly.

Last Chorus:

E|------------------------|
B|------------------------|
G|------------------------|
D|--7~-9~-12-12-12-12-12--| x4
A|--7~-9~-12-12-12-12-12--|
E|--5~-7~-10-10-10-10-10--|
            
Submit corrections

comments powered by Disqus
↑ Back to top | Taking Back Sunday Tabs for The Things We'll Never Know. Lyrics for acoustic guitar and electric guitar. 1 Tablatures and chords are parodies/interpretations of the original songs. You may use it for private study, scholarship, research or language learning purposes only