» » »

Taking Back Sunday, There Is No I In Team Tabs (ver.1)

Artists:  A B C D E F G H I J K L M N O P Q R S T U V W X Y Z # 

There Is No I In Team Tabs (ver.1)

Taking Back Sunday Tabs
 Rating:
4/5 (4 votes)
There Is No I In Team lessons Tabs too difficult? Try these video lessons and learn fast
1
                this is only about 80% right as its hard to get it when im listeing to both guitars and
words because it is such a good song 

intro/verse
guitar 1
||--------------------------------------------------------------------|
||--3-2--3-2--3-2--3-2--3-2--2----------------------------------------|
||-----2----2----2----2----2------------------------------------------|
||--------------------------------------------------------------------|
||--------------------------------------------------------------------|
||--------------------------------------------------------------------|x18 then 
 
guitar 2  use up and down strokes on this part work ut ryhtm yourself its not hard
||--------------------------------------------------------------------|
||--------------------------------------------------------------------|
||-444444444444-666-777-44444444-777-666-44444444-777-666-777-666-77-6|
||-xxxxxxxxxxxx-xxx-xxx-xxxxxxxx-xxx-xxx-xxxxxxxx-xxx-xxx-xxx-xxx-xx-x|
||-222222222222-444-555-22222222-555-444-22222222-555-444-555-444-55-4|
||--------------------------------------------------------------------|x4 then chorus

chorus 
||--------------------------------------------------------------------|
||--------------------------------------------------------------------|
||--------------------------------------------------------------------|
||--9999999999/11-7777777777/9-5555555555-5555555555------------------|
||--9999999999/11-7777777777/9-5555555555-5555555555------------------|
||--7777777777/9--5555555555/7-3333333333-3333333333------------------|x2

bridge
||--------------------------------------------------------------------|
||--------------------------------------------------------------------|
||--------------------------------------------------------------------|
||-121212121212121212121212-121212121212121212121212------------------|
||-121212121212121212121212-121212121212121212121212------------------|
||-101010101010101010101010-101010101010101010101010------------------|x8
pm  - - - - - - - - - - - -  - - - - - - - - - - - -

outro
Ending Note Guitar 1
||--------------------------------------------------------------------|
||--------------------------------------------------------------------|
||--------------------------------------------------------------------|
||--9-9---------------------------------------------------------------|
||--9-9---------------------------------------------------------------|
||--7-7---------------------------------------------------------------|

Guitar 2 plays this as guitar 1 fades out
||--9---9---9---9-----------------------------------------------------|
||---7---7---7---7----------------------------------------------------|
||----7---7---7---7---------------------------------------------------|
||--------------------------------------------------------------------|
||--------------------------------------------------------------------|
||--------------------------------------------------------------------|


song order 
intro/verse 
chorus 
verse 
chorus 
bridge 
chorus 
outro 

lyirics

Well I can't regret, 
can't you just forget it? 
I started something I couldn't finish 
And if we go down, 
we go down together 
best friends means, 
well best friends means 

And I've got a twenty-dollar bill 
that says you're up late night starting 
fist fights versus fences in your backyard 
Wearing your black eye like a badge of honor 
Soaking in sympathy 
nearly half as much as me 

Broken down in bars and bathrooms 
All I did was what I had to 
Don't believe me when I tell you 
it's just what anyone would do 
Take the time to talk about it 
Think a lot and live without it 
Don't believe me when I tell you 
it's something unforgivable...ohoh 

Well I can't regret, 
can't you just forget it? 
I started something I couldn't finish 
If we go down, 
we go down together 
best friends means, 
well best friends means 

You never knew 
well i never told you... 
Everything I know about breaking hearts 
I learned from you, it's true 
I've never done it with the style and grace you have 
But I've made long term plans 
based on these mistakes 

Broken down in bars and bathrooms 
All I did was what I had to 
Don't believe me when I tell you 
it's just what anyone would do 
Take the time to talk about it 
Think a lot and live without it 
Don't believe me when I tell you 
it's something unforgivable 

Is this what you call tact? 
I swear you're as subtle as a brick in the small of my back 
so let's end this call, 
and end this conversation 
there's nothing worse... 
(that's right he said, that's right he said it) 
I swear, you have no idea 
The jealousy that became me thinking 
(that's right he said) 
that you always had it way too easy 

Broken down in bars and bathrooms 
All I did was what I had to 
Don't believe me when I tell you 
it's just what anyone would do 
Take the time to talk about it 
Think a lot and live without it 
Don't believe me when I tell you 
it's something unforgivable 

Best friends means I pulled the trigger 
Best friends means you get what you deserve 
Best friends means I pulled the trigger 
Best friends means you get what you deserve 
Best friends means I pulled the trigger 
Best friends means you get what you deserve 
Best friends means I pulled the trigger 
Best friends means you get what you deserve 
Best friends means I pulled the trigger 
Best friends means you get what you deserve 

Best friend thinks I pulled the trigger!!! 
Best friend thinks you get what you deserve!!!
            
Submit corrections

comments powered by Disqus
↑ Back to top | Taking Back Sunday Tabs for There Is No I In Team. Lyrics for acoustic guitar and electric guitar. 1 Tablatures and chords are parodies/interpretations of the original songs. You may use it for private study, scholarship, research or language learning purposes only