>
 >
Spin

Spin Guitar Tabs

Taking Back Sunday - Spin chords, tabs, tablatures, lyrics

Guitar lessons | Add/correct | Request | Top 50 tabs Artists:  A B C D E F G H I J K L M N O P Q R S T U V W X Y Z 0-9

Spin Guitar Tabs – Taking Back Sunday

CD, Sheet music, Poster

Do you like Spin? Share with your friends now
Bass TabsTabsTabs v2

Tuning: Drop-D

PM/. : palm mute
t: tremolo picking
h: hammer on
p: pull off
b: bend
<>: harmonic

This is probably my favorite song on the new CD. I'm surprised no one's taken a stab at 
yet. It’s not perfect, but I gave it a shot..

Guitar One:

|-<5>------------------------------|
|---------<5>----------<7>---------|
|----------------<5>---------<7>---|
|----------------------------------|
|----------------------------------|
|----------------------------------|
(Thanks to lostfuze)

|--------11---9---------|------11---9---------|---------|
|---9h11----9---11p9----|-9h11----9---11p9----|         |
|--------------------11-|------------------11-|         |
|-----------------------|---------------------|         |--x2
|-----------------------|---------------------|         |
|-----------------------|---------------------|         |
                                                        |
|------11---9---------|------------------------|----------|
|-9h11----9---11p9----|-9h11p9p7h9p7----------------------|
|------------------11-|--------------10b------------------|
|---------------------|-----------------------------------|
|---------------------|-----------------------------------|
|---------------------|-----------------------------------|


Verse: Something along the lines of this, listen to the song for strumming
|-----------------------------------------------------------|
|-----------------------------------------------------------|
|-8~------8-8-8-8-8-8-8-8-8----------4~---11p0-10p0---------|
|-x~------x-x-x-x-x-x-x-x-x--6---6---x----------------------|
|-6~------6-6-6-6-6-6-6-6-6--6---6---2~---------------------|
|----------------------------6---6--------------------------|

|------------------------------------------|
|----------------<5>-----------------------|
|------------<5>---------------------------|
|-9---9---9~-----------3---3---3---3---3---|
|-9---9---9~-----------3---3---3---3---3---|
|-9---9---9~-----------3---3---3---3---3---|

|-----------------------------------------------------------|
|-----------------------------------------------------------|
|---------8-8-8-8-8-8-8-8-8----------4~---11p0-10p0---------|
|-1---1----------------------6---6--------------------------|
|-1---1---6-6-6-6-6-6-6-6-6--6---6---2~---------------------|
|-1---1----------------------6---6--------------------------|

|--------------------------------------------|
|----------------<5>-------------------------|
|------------<5>-----------------------------|
|-9---9---9~-----------------3-------3-----3-|
|-9---9---9~-----------3-3-3-3-------3-----3-|
|-9---9---9~-----------3-3-3-3-3-3-3-3-3-3-3-|
                       PM...   .....   ...

Pre-Chorus:
|----------------|x2
|----------------|
|-11-x16-10-x16--|
|----------------|
|--9------8------|
|----------------|

Chorus:
|------------------|-----------------|-----------------|-------------------|x4
|------------------|-----------------|-----------------|-------------------|
|------------------|-----------------|-----------------|-------------------|
|--1-1-1-1-1-1-1-1-|-3-3-3-3-3-3-3-3-|-4-4-4-4-4-4-4-4-|-9-9-9-9-9-9-9-9---|
|--1-1-1-1-1-1-1-1-|-3-3-3-3-3-3-3-3-|-4-4-4-4-4-4-4-4-|-9-9-9-9-9-9-9-9---|
|--1-1-1-1-1-1-1-1-|-3-3-3-3-3-3-3-3-|-4-4-4-4-4-4-4-4-|-9-9-9-9-9-9-9-9---|


|-------------------------|-------------------------|x2
|-------------------------|-------------------------|
|-11-11-11-11-11-11-11-11-|-10-10-10-10-10-10-10-10-|
|--x--x--x--x--x--x--x--x-|--x--x--x--x--x--x--x--x-|
|--9--9--9--9--9--9--9--9-|--8--8--8--8--8--8--8--8-|
|-------------------------|-------------------------|


**VERSE
**CHORUS


Breakdown:
|------11---9--------------------------------|
|-9h11----9---11p9------9h11p9p7h9p7---------|
|------------------11----------------10b-----|
|--------------------------------------------|
|--------------------------------------------|
|--------------------------------------------|

|------11---9------11---9------11---9----|
|-9h11----9---11p9----9---9h11----9---11-|
|----------------------------------------|
|----------------------------------------|
|----------------------------------------|
|----------------------------------------|

|------11---9--------------------------------|
|-9h11----9---11p9------9h11p9p7h9p7---------|
|------------------11----------------10b-----|
|--------------------------------------------|
|--------------------------------------------|
|--------------------------------------------|

|------11---9------11-----9------11----9---|x2
|-9h11----9---11p9------9---9h11----11---11|
|------------------------------------------|
|------------------------------------------|
|------------------------------------------|
|------------------------------------------|

|-11v~~~-----12b~~~~~---------------------------|
|-----------------------------------------------|
|---------------------10h11p10------------------|
|------------------------------11h13p11-11h13---|
|-----------------------------------------------|
|-----------------------------------------------|
PM                                 .

|-------------------------|
|-------------------------|
|-1513~~~~15-----15-------|
|-------------13-----13---|
|-------------------------|
|-------------------------|
Mess around with the last few notes/feedback


Listen close for this...
|-11t—13t-14t-----9t-----9t----11tb--|
|-------------11t----11t----11t------|
|------------------------------------|
|------------------------------------|
|------------------------------------|
|------------------------------------|


**CHORUS


|-------11---9--------------11---9--------------11---9------11---9------11----9-----|x2
|--9h11----9---11p9----9h11----9---11p9----9h11----9---11p9----9---9h11----11---11--|
|--------------------11------------------11-----------------------------------------|
|-----------------------------------------------------------------------------------|
|-----------------------------------------------------------------------------------|
|-----------------------------------------------------------------------------------|

|---------------------------|
|---------------------------|
|-11-x8--10-x8—-8-x8-10-x8--|
|--x------x-----x-----x-----|
|--9------8-----6-----9-----|
|---------------------------|

|----------|
|----------|
|----------|
|-1--1--1--|
|-1—-1—-1--|
|-1--1--1--|

GUITAR TWO:

Intro:
|--------|
|--4~~~~-|
|--3~~~~-|
|--4-~~~-|
|--2~~~~~|
|---~~~~-|

|-----------------------|---------------------|
|-----------------------|---------------------|
|-----------------------|---------------------|
|---1--1--1-1-1--1-1--1-|-3--3--3-3-3--3-3--3-|
|---1--1--1-1-1--1-1--1-|-3--3--3-3-3--3-3--3-|
|---1--1--1-1-1--1-1--1-|-3--3--3-3-3--3-3--3-|

|---------------------|-------------------------|
|---------------------|-------------------------|
|---------------------|-------------------------|
|-4--4--4-4-4--4-4--4-|-9--9-9-9-9-9--9----9----|
|-4--4--4-4-4--4-4--4-|-9--9-9-9-9-9--9----9—---|
|-4--4--4-4-4--4-4--4-|-9--9-9-9-9-9--9----9----|

Verse: Listen to the song for strumming
|---------------------------------------|
|---------------------------------------|
|---------------------------------------|
|-1---1---1~-----------------6---6---6~-|
|-1---1---1~-----------------6---6---6~-|
|-1---1---1~-----------------6---6---6~-|

|------------------------------------------|
|------------------------------------------|
|------------------------------------------|
|-9---9---9~-----------3---3---3---3---3---|
|-9---9---9~-----------3---3---3---3---3---|
|-9---9---9~-----------3---3---3---3---3---|

|---------------------------------------|
|---------------------------------------|
|---------------------------------------|
|-1---1---1~-----------------6---6---6~-|
|-1---1---1~-----------------6---6---6~-|
|-1---1---1~-----------------6---6---6~-|

|----------------------------------------|
|----------------------------------------|
|----------------------------------------|
|-9---9---9~-----------3-------3-----3---|
|-9---9---9~-----3-3-3-3-3-3-3-3-3-3-3---|
|-9---9---9~-----3-3-3-3-3-3-3-3-3-3-3---|
                 PM...   .....   ...

Pre Chorus:
|----------------------------------------------------------------|
|----------------------------------------------------------------|
|----------------------------------------------------------------|
|4-4-4-4-4-4-4-4-1-1-1-1-2-2-2-2-6-6-6-6-6-6-6-6-7-7-7-7-7-7-7-7-|
|4-4-4-4-4-4-4-4-1-1-1-1-2-2-2-2-6-6-6-6-6-6-6-6-7-7-7-7-7-7-7-7-|
|4-4-4-4-4-4-4-4-1-1-1-1-2-2-2-2-6-6-6-6-6-6-6-6-7-7-7-7-7-7-7-7-|


Chorus:
|-------------------|-----------------|-----------------|--------------------|x4
|-------------------|-----------------|-----------------|--------------------|
|-------------------|-----------------|-----------------|--------------------|
|---1-1-1-1-1-1-1-1-|-3-3-3-3-3-3-3-3-|-4-4-4-4-4-4-4-4-|-9-9-9-9-9-9-9-9----|
|---1-1-1-1-1-1-1-1-|-3-3-3-3-3-3-3-3-|-4-4-4-4-4-4-4-4-|-9-9-9-9-9-9-9-9----|
|---1-1-1-1-1-1-1-1-|-3-3-3-3-3-3-3-3-|-4-4-4-4-4-4-4-4-|-9-9-9-9-9-9-9-9----|


|-------------------------|-------------------------|
|-------------------------|-------------------------|
|-------------------------|-------------------------|
|--9--9--9--9--9--9--9--9-|--9--9--9--9--9--9--9--9-|
|--9--9--9--9--9--9--9--9-|--9--9--9--9--9--9--9--9-|
|--9--9--9--9--9--9--9--9-|--9--9--9--9--9--9--9--9-|
(Listen for strumming)


**VERSE
**CHORUS


Breakdown:
|---------------------|----------------------|
|---------------------|----------------------|
|---------------------|----------------------|
|-2--2--2-2-2--2-2--2-|-2--2-2-2-2-2--2----2-|
|-2--2--2-2-2--2-2--2-|-2--2-2-2-2-2--2----2-|
|-2--2--2-2-2--2-2--2-|-2--2-2-2-2-2--2----2-|

|----------------------------------------|
|----------------------------------------|
|----------------------------------------|
|-1--1--1-1-1--1-1--1-1-1-1--1--1-1-1--1-|
|-1--1--1-1-1--1-1--1-1-1-1--1--1-1-1--1-|
|-1--1--1-1-1--1-1--1-1-1-1--1--1-1-1--1-|

|---------------------|----------------------|
|---------------------|----------------------|
|---------------------|----------------------|
|-2--2--2-2-2--2-2--2-|-2--2-2-2-2-2--2----2-|
|-2--2--2-2-2--2-2--2-|-2--2-2-2-2-2--2----2-|
|-2--2--2-2-2--2-2--2-|-2--2-2-2-2-2--2----2-|


|---------------------|--------------------|x2
|---------------------|--------------------|
|---------------------|--------------------|
|-1-------1------1----|---1-------1----1---|
|-1-------1------1----|---1-------1----1---|
|-1-------1------1----|---1-------1----1---|


--rest--

(clean)
|-------------------------------------------------|
|-------------------------------------------------|
|-----------3----------3----------3------3--------|
|-------4----------4----------4--------------4----|
|------------------------------------2------------|
|---1----------3----------4-----------------------|


**CHORUS

End on:
|----------|
|----------|
|----------|
|-1--1--1--|
|-1—-1—-1--|
|-1--1--1--|





Comments


Popular Taking Back Sunday tabs & chords
Summer Stars Bass Tabs
You Know How I Do Bass Tabs
Best Places To Be A Mom Chords
Cute Without The E 5 Tabs
Devine Intervention Tabs
Eleven Tabs
Monterey Peninsula Bike Scene Tabs
My Blue Heaven Tabs
New American Classic 1 Tabs
Great Romances Of The 20th Century Ukulele


Song lyrics



↑ Back to top | Tablatures and chords are parodies/interpretations of the original songs. You may use it for private study, scholarship, research or language learning purposes only
© 2014 AZChords.com Contact us | Privacy policy | DMCA | Add/correct tabs | Request tabs | Top 50 tabs