>
 >
Sink Into Me 1

Sink Into Me 1 Guitar Tabs

Taking Back Sunday - Sink Into Me 1 chords, tabs, tablatures, lyrics

Guitar lessons | Add/correct | Request | Top 50 tabs Artists:  A B C D E F G H I J K L M N O P Q R S T U V W X Y Z 0-9

Sink Into Me 1 Guitar Tabs – Taking Back Sunday

CD, Sheet music, Poster

Do you like Sink Into Me 1? Share with your friends now
Bass TabsBass Tabs v2Bass Tabs v3ChordsTabsTabs v2Ukulele
-------------------------------------------------------------------------------
                             Sink Into Me  Taking Back Sunday
-------------------------------------------------------------------------------

Tuning: 1/2 Step down

 Intro
|---------------------------------------------------------------------------|
|---------------------------------------------------------------------------|
|---------------------------------------------------------------------------|
|---------------------------------------------------------------------------|
|-7-9-9--7-9-9--3-5-5--3-5-5--7-9-9--7-9-9--121414-3-5-5--------------------|
|-0-0-0--0-0-0--0-0-0--0-0-0--0-0-0--0-0-0--0-0-0--0-0-0--------------------|


 Verse
|---------------------------------------------------------------------------|
|-7-7-7-7-7-7-7-7-7-7-7-7-7-7-7-7-7-----------------------------------------|
|-7-7-7-7-7-7-7-7-7-7-7-7-7-7-7-7-7-5-5-5-5-5-5-5-5-5-5-5-5-5-5-5-5-5-5-5---|
|-7-7-7-7-7-7-7-7-7-7-7-7-7-7-7-7-7-7-7-7-7-7-7-7-7-7-7-7-7-7-7-7-7-7-7-7---|
|-5-5-5-5-5-5-5-5-5-5-5-5-5-5-5-5-5-7-7-7-7-7-7-7-7-7-7-7-7-7-7-7-7-7-7-7---|
|-----------------------------------7-7-7-7-7-7-7-7-7-7-7-7-7-7-7-7-7-7-7---|


|---------------------------------------------------------------------------|
|---------------------------------------------------------------------------|
|---------------------------------------------------------------------------|
|---------------------------------------------------------------------------|
|-7-9-9--7-9-9--3-5-5--3-5-5--7-9-9--7-9-9--121414-3-5-5--------------------|
|-0-0-0--0-0-0--0-0-0--0-0-0--0-0-0--0-0-0--0-0-0--0-0-0--------------------|

Pre-Chorus
 Guitar 1
|---------------------------------------------------------------------------|
|---------------------------------------------------------------------------|
|-17171717171717171717171717171717-7-7-7-7-7-7-7-7-7-7-7-7-7-7-7-7-7-7------|
|-xxxxxxxxxxxxxxxxxxxxxxxxxxxxxxxx-x-x-x-x-x-x-x-x-x-x-x-x-x-x-x-x-x-x------|
|-15151515151515151515151515151515-5-5-5-5-5-5-5-5-5-5-5-5-5-5-5-5-5-5------|
|---------------------------------------------------------------------------|

 Guitar 2
|---------------------------------------------------------------------------|
|---------------------------------------------------------------------------|
|---------------------------------------------------------------------------|
|-5-5-5-5-5-5-5-5-5-5-5-5-5-5-5-5-3-3-3-3-3-3-3-3-3-3-3-3-3-3-3-3-3-3-3-----|
|-5-5-5-5-5-5-5-5-5-5-5-5-5-5-5-5-3-3-3-3-3-3-3-3-3-3-3-3-3-3-3-3-3-3-3-----|
|-5-5-5-5-5-5-5-5-5-5-5-5-5-5-5-5-3-3-3-3-3-3-3-3-3-3-3-3-3-3-3-3-3-3-3-----|

Chorus
 Guitar 1
|---------------------------------------------------------------------------|
|---------------------------------------------------------------------------|
|-1111111111111-12121212121212-5-5-5-5-5-5----------------------------------|
|-xxxxxxxxxxxxx-xxxxxxxxxxxxxx-5-5-5-5-5-5-5-5-5-5-5-5-0-0-0-0-0-0-0-0-0-0-0|
|-9-9-9-9-9-9-9-10101010101010-3-3-3-3-3-3-5-5-5-5-5-5-0-0-0-0-0-0-0-0-0-0-0|
|------------------------------------------5-5-5-5-5-5-0-0-0-0-0-0-0-0-0-0-0|

 Guitar 2
|---------------------------------------------------------------------------|
|---------------------------------------------------------------------------|
|-------------------------------5-5-5-5-5-5---------------------------------|
|-0-0-0-0-0-0-0-0-0-0-0-0-0-0-0-5-5-5-5-5-5-5-5-5-5-5-5-0-0-0-0-0-0-0-0-0-0-|
|-0-0-0-0-0-0-0-0-0-0-0-0-0-0-0-3-3-3-3-3-3-5-5-5-5-5-5-0-0-0-0-0-0-0-0-0-0-|
|-0-0-0-0-0-0-0-0-0-0-0-0-0-0-0-------------5-5-5-5-5-5-0-0-0-0-0-0-0-0-0-0-|

 Guitar 1
|---------------------------------------------------------------------------|
|---------------------------------------------------------------------------|
|-141414141414-1616161616161616-171717171717-121212121212-191919191919191919|
|-xxxxxxxxxxxx-xxxxxxxxxxxxxxxx-xxxxxxxxxxxx-xxxxxxxxxxxx-xxxxxxxxxxxxxxxxxx|
|-121212121212-1414141414141414-151515151515-101010101010-171717171717171717|
|---------------------------------------------------------------------------|

 Guitar 2
|---------------------------------------------------------------------------|
|---------------------------------------------------------------------------|
|-------------------------------5-5-5-5-5-5---------------------------------|
|-0-0-0-0-0-0-0-0-0-0-0-0-0-0-0-5-5-5-5-5-5-5-5-5-5-5-5-0-0-0-0-0-0-0-0-0-0-|
|-0-0-0-0-0-0-0-0-0-0-0-0-0-0-0-3-3-3-3-3-3-5-5-5-5-5-5-0-0-0-0-0-0-0-0-0-0-|
|-0-0-0-0-0-0-0-0-0-0-0-0-0-0-0-------------5-5-5-5-5-5-0-0-0-0-0-0-0-0-0-0-|


 2x
|---------------------------------------------------------------------------|
|---------------------------------------------------------------------------|
|---------------------------------------------------------------------------|
|---------------------------------------------------------------------------|
|-7-9-9--7-9-9--3-5-5--3-5-5--7-9-9--7-9-9--121414-3-5-5--------------------|
|-0-0-0--0-0-0--0-0-0--0-0-0--0-0-0--0-0-0--0-0-0--0-0-0--------------------|

Pre-Chorus
 Guitar 1
|---------------------------------------------------------------------------|
|---------------------------------------------------------------------------|
|-17171717171717171717171717171717-7-7-7-7-7-7-7-7-7-7-7-7-7-7-7-7-7-7------|
|-xxxxxxxxxxxxxxxxxxxxxxxxxxxxxxxx-x-x-x-x-x-x-x-x-x-x-x-x-x-x-x-x-x-x------|
|-15151515151515151515151515151515-5-5-5-5-5-5-5-5-5-5-5-5-5-5-5-5-5-5------|
|---------------------------------------------------------------------------|

 Guitar 2
|---------------------------------------------------------------------------|
|---------------------------------------------------------------------------|
|---------------------------------------------------------------------------|
|-5-5-5-5-5-5-5-5-5-5-5-5-5-5-5-5-3-3-3-3-3-3-3-3-3-3-3-3-3-3-3-3-3-3-3-----|
|-5-5-5-5-5-5-5-5-5-5-5-5-5-5-5-5-3-3-3-3-3-3-3-3-3-3-3-3-3-3-3-3-3-3-3-----|
|-5-5-5-5-5-5-5-5-5-5-5-5-5-5-5-5-3-3-3-3-3-3-3-3-3-3-3-3-3-3-3-3-3-3-3-----|

Chorus
 Guitar 1
|---------------------------------------------------------------------------|
|---------------------------------------------------------------------------|
|-1111111111111-12121212121212-5-5-5-5-5-5----------------------------------|
|-xxxxxxxxxxxxx-xxxxxxxxxxxxxx-5-5-5-5-5-5-5-5-5-5-5-5-0-0-0-0-0-0-0-0-0-0-0|
|-9-9-9-9-9-9-9-10101010101010-3-3-3-3-3-3-5-5-5-5-5-5-0-0-0-0-0-0-0-0-0-0-0|
|------------------------------------------5-5-5-5-5-5-0-0-0-0-0-0-0-0-0-0-0|

 Guitar 2
|---------------------------------------------------------------------------|
|---------------------------------------------------------------------------|
|-------------------------------5-5-5-5-5-5---------------------------------|
|-0-0-0-0-0-0-0-0-0-0-0-0-0-0-0-5-5-5-5-5-5-5-5-5-5-5-5-0-0-0-0-0-0-0-0-0-0-|
|-0-0-0-0-0-0-0-0-0-0-0-0-0-0-0-3-3-3-3-3-3-5-5-5-5-5-5-0-0-0-0-0-0-0-0-0-0-|
|-0-0-0-0-0-0-0-0-0-0-0-0-0-0-0-------------5-5-5-5-5-5-0-0-0-0-0-0-0-0-0-0-|

 Guitar 1
|---------------------------------------------------------------------------|
|---------------------------------------------------------------------------|
|-141414141414-1616161616161616-171717171717-121212121212-191919191919191919|
|-xxxxxxxxxxxx-xxxxxxxxxxxxxxxx-xxxxxxxxxxxx-xxxxxxxxxxxx-xxxxxxxxxxxxxxxxxx|
|-121212121212-1414141414141414-151515151515-101010101010-171717171717171717|
|---------------------------------------------------------------------------|

 Guitar 2
|---------------------------------------------------------------------------|
|---------------------------------------------------------------------------|
|-------------------------------5-5-5-5-5-5---------------------------------|
|-0-0-0-0-0-0-0-0-0-0-0-0-0-0-0-5-5-5-5-5-5-5-5-5-5-5-5-0-0-0-0-0-0-0-0-0-0-|
|-0-0-0-0-0-0-0-0-0-0-0-0-0-0-0-3-3-3-3-3-3-5-5-5-5-5-5-0-0-0-0-0-0-0-0-0-0-|
|-0-0-0-0-0-0-0-0-0-0-0-0-0-0-0-------------5-5-5-5-5-5-0-0-0-0-0-0-0-0-0-0-|



|---------------------------------------------------------------------------|
|---------------------------------------------------------------------------|
|-5--5--5--5--5--5--5--5--5--5--5-------------------------------------------|
|-5--5--5--5--5--5--5--5--5--5--5-------------------------------------------|
|-3--3--3--3--3--3--3--3--3--3--3-------------------------------------------|
|---------------------------------0-0-0-0-0-0-0-0-0-0-0-0-0-0-0-0-0-0-0-0-0-|
                                  x x x x x x x x x x x x x x x x x x x x x
|---------------------------------------------------------------------------|
|---------------------------------------------------------------------------|
|---------------------------------------------------------------------------|
|---------------------------------------------------------------------------|
|---------------------------------------------------------------------------|
|-0-0-0-0-0-0-0-0-0-0-0-0-0-0-0-0-0-0-0-0-0-0-0-0-0-0-0-0-0-0-0-0-0-0-0-0---|
  x x x x x x x x x x x x x x x x x x x x x x x x x x x x x x x x x x x x


2x
|---------------------------------------------------------------------------|
|---------------------------------------------------------------------------|
|---------------------------------------------------------------------------|
|---------------------------------------------------------------------------|
|-7-9-9--7-9-9--3-5-5--3-5-5--7-9-9--7-9-9--121414-3-5-5--------------------|
|-0-0-0--0-0-0--0-0-0--0-0-0--0-0-0--0-0-0--0-0-0--0-0-0--------------------|


Pre-Chorus
 Guitar 1
|---------------------------------------------------------------------------|
|---------------------------------------------------------------------------|
|-17171717171717171717171717171717-7-7-7-7-7-7-7-7-7-7-7-7-7-7-7-7-7-7------|
|-xxxxxxxxxxxxxxxxxxxxxxxxxxxxxxxx-x-x-x-x-x-x-x-x-x-x-x-x-x-x-x-x-x-x------|
|-15151515151515151515151515151515-5-5-5-5-5-5-5-5-5-5-5-5-5-5-5-5-5-5------|
|---------------------------------------------------------------------------|

 Guitar 2
|---------------------------------------------------------------------------|
|---------------------------------------------------------------------------|
|---------------------------------------------------------------------------|
|-5-5-5-5-5-5-5-5-5-5-5-5-5-5-5-5-3-3-3-3-3-3-3-3-3-3-3-3-3-3-3-3-3-3-3-----|
|-5-5-5-5-5-5-5-5-5-5-5-5-5-5-5-5-3-3-3-3-3-3-3-3-3-3-3-3-3-3-3-3-3-3-3-----|
|-5-5-5-5-5-5-5-5-5-5-5-5-5-5-5-5-3-3-3-3-3-3-3-3-3-3-3-3-3-3-3-3-3-3-3-----|

Chorus
 Guitar 1
|---------------------------------------------------------------------------|
|---------------------------------------------------------------------------|
|-1111111111111-12121212121212-5-5-5-5-5-5----------------------------------|
|-xxxxxxxxxxxxx-xxxxxxxxxxxxxx-5-5-5-5-5-5-5-5-5-5-5-5-0-0-0-0-0-0-0-0-0-0-0|
|-9-9-9-9-9-9-9-10101010101010-3-3-3-3-3-3-5-5-5-5-5-5-0-0-0-0-0-0-0-0-0-0-0|
|------------------------------------------5-5-5-5-5-5-0-0-0-0-0-0-0-0-0-0-0|

 Guitar 2
|---------------------------------------------------------------------------|
|---------------------------------------------------------------------------|
|-------------------------------5-5-5-5-5-5---------------------------------|
|-0-0-0-0-0-0-0-0-0-0-0-0-0-0-0-5-5-5-5-5-5-5-5-5-5-5-5-0-0-0-0-0-0-0-0-0-0-|
|-0-0-0-0-0-0-0-0-0-0-0-0-0-0-0-3-3-3-3-3-3-5-5-5-5-5-5-0-0-0-0-0-0-0-0-0-0-|
|-0-0-0-0-0-0-0-0-0-0-0-0-0-0-0-------------5-5-5-5-5-5-0-0-0-0-0-0-0-0-0-0-|

 Guitar 1
|---------------------------------------------------------------------------|
|---------------------------------------------------------------------------|
|-141414141414-1616161616161616-171717171717-121212121212-191919191919191919|
|-xxxxxxxxxxxx-xxxxxxxxxxxxxxxx-xxxxxxxxxxxx-xxxxxxxxxxxx-xxxxxxxxxxxxxxxxxx|
|-121212121212-1414141414141414-151515151515-101010101010-171717171717171717|
|---------------------------------------------------------------------------|

 Guitar 2
|---------------------------------------------------------------------------|
|---------------------------------------------------------------------------|
|-------------------------------5-5-5-5-5-5---------------------------------|
|-0-0-0-0-0-0-0-0-0-0-0-0-0-0-0-5-5-5-5-5-5-5-5-5-5-5-5-0-0-0-0-0-0-0-0-0-0-|
|-0-0-0-0-0-0-0-0-0-0-0-0-0-0-0-3-3-3-3-3-3-5-5-5-5-5-5-0-0-0-0-0-0-0-0-0-0-|
|-0-0-0-0-0-0-0-0-0-0-0-0-0-0-0-------------5-5-5-5-5-5-0-0-0-0-0-0-0-0-0-0-|


|---------------------------------------------------------------------------|
|-3--3--3--3--3--3--5--5--5--5--5-5-5---------------------------------------|
|-5--5--5--5--5--5--5--5--5--5--5-5-5---------------------------------------|
|-5--5--5--5--5--5--5--5--5--5--5-5-5---------------------------------------|
|-3--3--3--3--3--3--3--3--3--3--3-3-3---------------------------------------|
|---------------------------------------------------------------------------|


| /  slide up
| \  slide down
| h  hammer-on
| p  pull-off
| ~  vibrato
| +  harmonic
| x  Mute note
===============================================================================





Comments


Popular Taking Back Sunday tabs & chords
Cut Me Up Jenny Chords
Cute Without The E Chords
...Slowdance On The Inside Tabs
Cute Without The 'e' (Cut From The Team) 2 Tabs
I Follow The Format Tabs
Makedamnsure 5 Tabs
There's No "I" In Team 1 Tabs
Whats It Feel Like To Be A Ghost Tabs
Your Own Disaster 2 Tabs
Youre So Last Summer 3 Tabs


Song lyrics



↑ Back to top | Tablatures and chords are parodies/interpretations of the original songs. You may use it for private study, scholarship, research or language learning purposes only
© 2014 AZChords.com Contact us | Privacy policy | DMCA | Add/correct tabs | Request tabs | Top 50 tabs