>
 >
Lost And Found

Lost And Found Guitar Tabs

Taking Back Sunday - Lost And Found chords, tabs, tablatures, lyrics

Guitar lessons | Add/correct | Request | Top 50 tabs Artists:  A B C D E F G H I J K L M N O P Q R S T U V W X Y Z 0-9

Lost And Found Guitar Tabs – Taking Back Sunday

CD, Sheet music, Poster

Do you like Lost And Found? Share with your friends now
Tabs
Taking Back Sunday
Lost and Found

Intro: Clean Guitar 1
Part 1 0:00-0:22
E------------------------------------
B-4----4----4----4----4--------------
G----5----5----5----5------x6--------
D--5----5----5----5------------------
A------------------------------------
E------------------------------------

Part:2 Guitar 2
Distortion 0:11-0:23
E-33-3--------22-2------------------------------------
B-55-5--33-3--44-4--22-2------------------------------
G-55-5--55-5--44-4--44-4------------------------------
D-------55-5--------44-4------------------------------
A-----------------------------------------------------
E-----------------------------------------------------

Part3 
Guitar 1. still Clean 0:23-0:47
Second part after intro. this is playing while guitar 2 is.
E------------------------------------
B-4----4----4----4----4--------------
G----6----6----6----6-----x7---------
D--5----5----5----5------------------
A------------------------------------
E------------------------------------

Part4
Distortion 0:24-0:35 Guitar 2
E-33--33-xxxx-----------------------------------
B-55--55-xxxx--x2---33-xx-33-xxxx---------------
G-55--55-xxxx-------55-xx-55-xxxx---x2----------
D-------------------55-xx-55-xxxx---------------
A-----------------------------------------------
E-----------------------------------------------

Part5
Distortion 0:35-0:46 Guitar 2
E-22-xx-22-xxxx----------------------------
B-44-xx-44-xxxx--x2--22-xx-22-xxxx---------
G-44-xx-44-xxxx------44-xx-44-xxxx--x2-----
D--------------------44-xx-44-xxxx---------
A------------------------------------------
E------------------------------------------

Part6
Distortion 0:47-1:10 Guitar 2
E-1-----1---------1---------1--------------
B-3-x10-3-x8-1----3-x8-1----3----1---------
G-3-----3----3-x8-3----3-x8-3-x8-3-x8------
D------------3---------3---------3---------
A------------------------------------------
E------------------------------------------

Second Verse 
Part7  1:11-1:34 Guitar 2
E-33-3-33-3-------------22--22-xxx--22-22------------
B-55-5-55-5-22-22-22-22-44--44-xxx--44-44-22-22-22---
G-55-5-55-5-44-44-44-44-44--44-xxx--44-44-44-44-44---
D-----------44-44-44-44-------------------44-44-44---
A----------------------------------------------------
E----------------------------------------------------

part8 
distortion 1:35-1:58 Guitar 2
E-1-----1---------1---------1--------------
B-3-x10-3-x8-1----3-x8-1----3----1---------
G-3-----3----3-x8-3----3-x8-3-x8-3-x8------
D------------3---------3---------3---------
A------------------------------------------
E------------------------------------------

Part9
Acoustic 1:59-2:10 Guitar 1
E-----4-5-6-5---------4-6-5-4-------------
B-5-4---------x3--5-4---------------------
G-----------------------------------------
D-----------------------------------------
A-----------------------------------------
E-----------------------------------------


Part10
Acoustic 2:11-2:30 Guitar 1
E-----4-5-6-5--------6--------5-------6-------5-------
B-5-4---------x6---5--x8----5--x8---5--x8---5--x8-----
G----------------5--------5-------5-------5-----------
D-----------------------------------------------------
A-----------------------------------------------------
E-----------------------------------------------------

Part11
Acoustic 2:31-2:51 Guitar 1
E-----6--6--6--6--6--6--6--6--6--5--5--5--5--5--------
B---5--5--5--5--5--5--5--5--5-----5--5--5--5--5-------
G-5--5--5--5--5--5--5--5--5-----5--5--5--5--5--5------
D-----------------------------------------------------
A-----------------------------------------------------
E-----------------------------------------------------

Part12
Electric: Clean 2:14-2:17 Guitar 2
E------------------------------------------
B------------------------------------------
G-0-3-4--0-3-4-0---------------------------
D-----------------0-3-4-0-3-4--------------
A------------------------------------------
E------------------------------------------

Part13
Electric: Distortion. at the end it fades.. 2:45-2:55 Guitar 2
E-11-12-x8--11-12-x8-12-13-12-12-----------
B----------------------------0--0----------
G------------------------------------------
D------------------------------------------
A------------------------------------------
E------------------------------------------

Part14
Distorted 2:56-3:52 Guitar 2
E-1-----1---------1---------1--------------
B-3-x10-3-x8-1----3-x8-1----3----1---------
G-3-----3----3-x8-3----3-x8-3-x8-3-x8------
D------------3---------3---------3---------
A------------------------------------------
E------------------------------------------





Comments


Popular Taking Back Sunday tabs & chords
Blue Channel Bass Tabs
Union Bass Tabs
Capital M-e Chords
Makedamnsure 3 Chords
Cut From The Team Tabs
Ill Let You Live Tabs
Liar It Takes One To Know One Tabs
Number Five With A Bullet 1 Tabs
What It Feel Like To Be A Ghost 2 Tabs
Sink Into Me Ukulele


Song lyrics



↑ Back to top | Tablatures and chords are parodies/interpretations of the original songs. You may use it for private study, scholarship, research or language learning purposes only
© 2014 AZChords.com Contact us | Privacy policy | DMCA | Add/correct tabs | Request tabs | Top 50 tabs