>
 >
Little Devotional 1

Little Devotional 1 Guitar Tabs

Taking Back Sunday - Little Devotional 1 chords, tabs, tablatures, lyrics

Guitar lessons | Add/correct | Request | Top 50 tabs Artists:  A B C D E F G H I J K L M N O P Q R S T U V W X Y Z 0-9

Little Devotional 1 Guitar Tabs – Taking Back Sunday

CD, Sheet music, Poster

Do you like Little Devotional 1? Share with your friends now
Bass TabsChordsTabsTabs v2Ukulele
Band: Taking Back Sunday

Tuning: Standard

INTRO

Guitar 1
E|-----------------------------------------------------------------|
B|-----------------------------------------------------------------|
G|-9~~~~~----------------------------------------------------------|
D|-x---------------------------------------------------------------|
A|-7~~~~~----------------------------------------------------------|1x
E|---------------------------------------------------X\\\\\\\\\\\\\|


Guitar 1
E|-----------------------------------------------------------------|
B|-------012-0-----------0-------0-------012-0-----------0-------0-|
G|-8h911------11p9-8h9p8---8h9p8---8h911------11p9-8h9p8---8h9p8---|
D|-----------------------------------------------------------------|
A|-----------------------------------------------------------------|2x
E|-----------------------------------------------------------------|
 |
 |
Guitar 2
E|-----------------------------------------------------------------|
B|-----------------------------------------------------------------|
G|-9-9-9-9-9-9-9-9-----------------9-9-9-9-9-9-9-9-----------------|
D|-9-9-9-9-9-9-9-9-9-9-9-9-9-9-9-9-9-9-9-9-9-9-9-9-----------------|
A|-7-7-7-7-7-7-7-7-9-9-9-9-9-9-9-9-7-7-7-7-7-7-7-7-7-7-7-7-7-7-7-7-|2x
E|-----------------7-7-7-7-7-7-7-7-----------------4-4-4-4-5-5-5-5-|
 |
 |
Guitar 3
E|----------------------------------------12-------------0-------0-|
B|------------------------------------12-0---0-9p7-7h9p7---7h9p7---|
G|--------------------------------11h13----------------------------|
D|-----------------------------------------------------------------|
A|-----------------------------------------------------------------|2x
E|-----------------------------------------------------------------|


VERSE
Guitar 1
E|-------------------------------------------------------------|
B|-------------------------------------------------------------|
G|-------------------------------------------------------------|
D|-------------6-6h7p6-6-6h7p6---------------6h7p6-6-6h7p6-----|
A|-7~~~~~------------------------7~~~~~--------------------7~~~|1x
E|-------------------------------------------------------------|
 |
 |
Guitar 2
E|-------------------------------------------------------------|
B|-------------9~~~~~---10~~~~~--------9~~~~~9~~~~~---10~~~~~--|
G|-9~~~~~--------9~~~~-----9~~~~~--------------9~~~~~----9~~~~~|
D|-x-----9~~~~~------------------9~~~~~------------------------|
A|-7~~~~~------------------------------------------------------|1x
E|-------------------------------------------------------------|


Guitar 1
E|-------------------------------------------------------------|
B|-------------------------------------------------------------|
G|-------------------------------------------------------------|
D|-------------2-2h4p2-1-1h2p1-------------2-2h4p2-1-1h2p1-----|
A|-4~~~~~------------------------4~~~~~------------------------|1x
E|-------------------------------------------------------------|
 |
 |
Guitar 2
E|-------------------------------------------------------------|
B|-------------9~~~~~----7~~~~~--------9~~~~~9~~~~~----7~~~~~--|
G|-6-------9~~~~-----9~~~~~--------------9~~~~~----9~~~~~------|
D|-x----6~~~~~-------------------6~~~~~------------------------|
A|-4~~~~~------------------------------------------------------|1x
E|-------------------------------------------------------------|


     CHORUS
     Guitar 1
     E|-----------------------------------------------------------------|
     B|-----------------------------------------------------------------|
     G|-9-9-9-9-9-9-9-9\8-8-8-8/9-9-9-9-9-9-9-9-9-9-9-9\8-8-8-8/9-9-9-9-|
     D|-x-x-x-x-x-x-x-x-x-x-x-x-x-x-x-x-x-x-x-x-x-x-x-x-x-x-x-x-x-x-x-x-|
     A|-7-7-7-7-7-7-7-7\6-6-6-6/7-7-7-7-7-7-7-7-7-7-7-7\6-6-6-6/7-7-7-7-|2x
     E|-----------------------------------------------------------------|
      |
      |
     Guitar 2
     E|-----------------------------------------------------------------|
     B|-----------------------------------------------------------------|
     G|-9-9-9-9-9-9-9-9-9-9-9-9-9-9-9-9-9-9-9-9-9-9-9-9-9-9-9-9-9-9-9-9-|
     D|-x-x-x-x-x-x-x-x-x-x-x-x-x-x-x-x-x-x-x-x-x-x-x-x-x-x-x-x-x-x-x-x-|
     A|-7-7-7-7-7-7-7-7-7-7-7-7-7-7-7-7-7-7-7-7-7-7-7-7-7-7-7-7-7-7-7-7-|2x
     E|-----------------------------------------------------------------|


VERSE
Guitar 1
E|-------------------------------------------------------------|
B|-------------------------------------------------------------|
G|-------------------------------------------------------------|
D|-------------6-6h7p6-6-6h7p6---------------6h7p6-6-6h7p6-----|
A|-7~~~~~------------------------7~~~~~--------------------7~~~|1x
E|-------------------------------------------------------------|
 |
 |
Guitar 2
E|-------------------------------------------------------------|
B|-------------9~~~~~---10~~~~~--------9~~~~~9~~~~~---10~~~~~--|
G|-9~~~~~--------9~~~~-----9~~~~~--------------9~~~~~----9~~~~~|
D|-x-----9~~~~~------------------9~~~~~------------------------|
A|-7~~~~~------------------------------------------------------|1x
E|-------------------------------------------------------------|


Guitar 1
E|-------------------------------------------------------------|
B|-------------------------------------------------------------|
G|-------------------------------------------------------------|
D|-------------2-2h4p2-1-1h2p1-------------2-2h4p2-1-1h2p1-----|
A|-4~~~~~------------------------4~~~~~------------------------|1x
E|-------------------------------------------------------------|
 |
 |
Guitar 2
E|-------------------------------------------------------------|
B|-------------9~~~~~----7~~~~~--------9~~~~~9~~~~~----7~~~~~--|
G|-6-------9~~~~-----9~~~~~--------------9~~~~~----9~~~~~------|
D|-x----6~~~~~-------------------6~~~~~------------------------|
A|-4~~~~~------------------------------------------------------|1x
E|-------------------------------------------------------------|


PRE-CHORUS
Guitar 1
E|-----------------------------------------------------------------|
B|-----------------------------------------------------------------|
G|-6-6-6-6-6-6-6-6---8-8-8-8-8-8-8-9-9-9-9-9-9-9---9-9-9-9-9-9-9-9-|
D|-x-x-x-x-x-x-x-x---x-x-x-x-x-x-x-x-x-x-x-x-x-x---x-x-x-x-x-x-x-x-|
A|-4-4-4-4-4-4-4-4---6-6-6-6-6-6-6-7-7-7-7-7-7-7---7-7-7-7-7-7-7-7-|1x
E|-----------------------------------------------------------------|


Guitar 1
E|-----------------------------------------------------------------|
B|-----------------------------------------------------------------|
G|-6-6-6-6-6-6-6-6---4-4-4-4-4-4-4-2-2-2-2-2-2-2-------------------|
D|-x-x-x-x-x-x-x-x---x-x-x-x-x-x-x-x-x-x-x-x-x-x-------------------|
A|-4-4-4-4-4-4-4-4---2-2-2-2-2-2-2-0-0-0-0-0-0-0-------------------|1x
E|-----------------------------------------------0-0-0-0-0-0-0-0-0-|
                                                pm . . . . . . . .


     CHORUS
     Guitar 1
     E|-----------------------------------------------------------------|
     B|-----------------------------------------------------------------|
     G|-9-9-9-9-9-9-9-9\8-8-8-8/9-9-9-9-9-9-9-9-9-9-9-9\8-8-8-8/9-9-9-9-|
     D|-x-x-x-x-x-x-x-x-x-x-x-x-x-x-x-x-x-x-x-x-x-x-x-x-x-x-x-x-x-x-x-x-|
     A|-7-7-7-7-7-7-7-7\6-6-6-6/7-7-7-7-7-7-7-7-7-7-7-7\6-6-6-6/7-7-7-7-|2x
     E|-----------------------------------------------------------------|
      |
      |
     Guitar 2
     E|-----------------------------------------------------------------|
     B|-----------------------------------------------------------------|
     G|-9-9-9-9-9-9-9-9-9-9-9-9-9-9-9-9-9-9-9-9-9-9-9-9-9-9-9-9-9-9-9-9-|
     D|-x-x-x-x-x-x-x-x-x-x-x-x-x-x-x-x-x-x-x-x-x-x-x-x-x-x-x-x-x-x-x-x-|
     A|-7-7-7-7-7-7-7-7-7-7-7-7-7-7-7-7-7-7-7-7-7-7-7-7-7-7-7-7-7-7-7-7-|2x
     E|-----------------------------------------------------------------|


BRIDGE
Guitar 1
E|---------------------------------|
B|---------------------------------|
G|-6666-6-6666-6-66666666-6-6666-6-|
D|---------------------------------|
A|---------------------------------|2x
E|---------------------------------|
 |
 |
Guitar 2
E|-4~~~~~~~2~~~~~~~0~~~~~~~0~~~~~~~|
B|-------------------------2~~~~~~~|
G|---------------------------------|
D|---------------------------------|
A|-4~~~~~~~2~~~~~~~0~~~~~~~0~~~~~~~|2x
E|---------------------------------|


PRE-CHORUS
Guitar 1
E|-----------------------------------------------------------------|
B|-----------------------------------------------------------------|
G|-6-6-6-6-6-6-6-6---8-8-8-8-8-8-8-9-9-9-9-9-9-9---9-9-9-9-9-9-9-9-|
D|-x-x-x-x-x-x-x-x---x-x-x-x-x-x-x-x-x-x-x-x-x-x---x-x-x-x-x-x-x-x-|
A|-4-4-4-4-4-4-4-4---6-6-6-6-6-6-6-7-7-7-7-7-7-7---7-7-7-7-7-7-7-7-|1x
E|-----------------------------------------------------------------|


Guitar 1
E|-----------------------------------------------------------------|
B|-----------------------------------------------------------------|
G|-6-6-6-6-6-6-6-6---4-4-4-4-4-4-4-2-2-2-2-2-2-2-------------------|
D|-x-x-x-x-x-x-x-x---x-x-x-x-x-x-x-x-x-x-x-x-x-x-------------------|
A|-4-4-4-4-4-4-4-4---2-2-2-2-2-2-2-0-0-0-0-0-0-0-------------------|1x
E|-----------------------------------------------0-0-0-0-0-0-0-0-0-|


     CHORUS
     Guitar 1
     E|-----------------------------------------------------------------|
     B|-----------------------------------------------------------------|
     G|-9-9-9-9-9-9-9-9\8-8-8-8/9-9-9-9-9-9-9-9-9-9-9-9\8-8-8-8/9-9-9-9-|
     D|-x-x-x-x-x-x-x-x-x-x-x-x-x-x-x-x-x-x-x-x-x-x-x-x-x-x-x-x-x-x-x-x-|
     A|-7-7-7-7-7-7-7-7\6-6-6-6/7-7-7-7-7-7-7-7-7-7-7-7\6-6-6-6/7-7-7-7-|2x
     E|-----------------------------------------------------------------|
      |
      |
     Guitar 2
     E|-----------------------------------------------------------------|
     B|-----------------------------------------------------------------|
     G|-9-9-9-9-9-9-9-9-9-9-9-9-9-9-9-9-9-9-9-9-9-9-9-9-9-9-9-9-9-9-9-9-|
     D|-x-x-x-x-x-x-x-x-x-x-x-x-x-x-x-x-x-x-x-x-x-x-x-x-x-x-x-x-x-x-x-x-|
     A|-7-7-7-7-7-7-7-7-7-7-7-7-7-7-7-7-7-7-7-7-7-7-7-7-7-7-7-7-7-7-7-7-|2x
     E|-----------------------------------------------------------------|


     Guitar 1
     E|-----------------------------------------------------------------|
     B|-----------------------------------------------------------------|
     G|-9-9-9-9-9-9-9-9\8-8-8-8/9-9-9-9-9-9-9-9-9-9-9-9\8-8-8-8/9-9-9-9-|
     D|-x-x-x-x-x-x-x-x-x-x-x-x-x-x-x-x-x-x-x-x-x-x-x-x-x-x-x-x-x-x-x-x-|
     A|-7-7-7-7-7-7-7-7\6-6-6-6/7-7-7-7-7-7-7-7-7-7-7-7\6-6-6-6/7-7-7-7-|2x
     E|-----------------------------------------------------------------|
      |
      |
     Guitar 2
     E|-----------------------------------------------------------------|
     B|-----------------------------------------------------------------|
     G|-9-9-9-9-9-9-9-9-9-9-9-9-9-9-9-9-9-9-9-9-9-9-9-9-9-9-9-9-9-9-9-9-|
     D|-x-x-x-x-x-x-x-x-x-x-x-x-x-x-x-x-x-x-x-x-x-x-x-x-x-x-x-x-x-x-x-x-|
     A|-7-7-7-7-7-7-7-7-7-7-7-7-7-7-7-7-7-7-7-7-7-7-7-7-7-7-7-7-7-7-7-7-|2x
     E|-----------------------------------------------------------------|
      |
      |
     Guitar 3
     E|-----------------------------------------------------------------|
     B|-------012-0-----------0-------0-------012-0-----------0-------0-|
     G|-8h911------11p9-8h9p8---8h9p8---8h911------11p9-8h9p8---8h9p8---|
     D|-----------------------------------------------------------------|
     A|-----------------------------------------------------------------|2x
     E|-----------------------------------------------------------------|
      |
      |
     Guitar 4
     E|----------------------------------------12-------------0-------0-|
     B|------------------------------------12-0---0-9p7-7h9p7---7h9p7---|
     G|--------------------------------11h13----------------------------|
     D|-----------------------------------------------------------------|
     A|-----------------------------------------------------------------|2x
     E|-----------------------------------------------------------------|


OUTTRO
Guitar 1
E|---------|
B|---------|
G|-9~~~~~~~|
D|-x-------|
A|-7~~~~~~~|1x
E|---------|





Comments


Popular Taking Back Sunday tabs & chords
Summer Man Bass Tabs
Summer Stars Bass Tabs
There Is No I In Team 2 Bass Tabs
Your So Last Summer 2 Bass Tabs
Alone Forever 1 Tabs
Divine Intervention 3 Tabs
Eleven 2 Tabs
Error Operator 5 Tabs
Sink Into Me 1 Tabs
Where My Mouth Is Ukulele


Song lyrics



↑ Back to top | Tablatures and chords are parodies/interpretations of the original songs. You may use it for private study, scholarship, research or language learning purposes only
© 2014 AZChords.com Contact us | Privacy policy | DMCA | Add/correct tabs | Request tabs | Top 50 tabs