» » »

Taking Back Sunday, Like An Angel Tabs (ver.1)

Artists:  A B C D E F G H I J K L M N O P Q R S T U V W X Y Z # 

Like An Angel Tabs (ver.1)

Taking Back Sunday Tabs
 Rating:
4/5 (4 votes)
Like An Angel lessons Tabs too difficult? Try these video lessons and learn fast
1
                -----------------------------------------------------------------------------
                 You're My Angel - Taking Back Sunday
-----------------------------------------------------------------------------
Tuning: Eb Ab Db Gb Bb eb

(Intro) Guitar 1
e|-----------------------------------------------------------------|
B|-----------------------------------------------------------------|
G|-----------------------------------------------------------------|
D|-----------------------------------------------------------------|
A|--7-----7-----7---5-----5-----5---3-----3-----3---2----2-----2---|
E|----8-8---8-8---8---7-7---7-7---7---5-5---5-5---5---3-3--3-3---3-|

e|--------------------------------------------------------------------|
B|--------------------------------------------------------------------|
G|--------------------------------------------------------------------|
D|--------------------------------------------------------------------|Repeat
A|--3-----3-----3---2-----2-----2---3-----3-----3---3-------2---------|
E|----1-1---1-1---1---3-3---3-3---3---1-1---1-1---1---5-5-5---3-3-3---|

(Intro) Guitar 2
e|-----------------------------------|
B|-----------------------------------|
G|-5~-----4-5-4-0---4-5-4------------|
D|------------------------3---7-5----|
A|-----------------------------------|
E|-----------------------------------|

e|---------------------------------------------------------------------|
B|---------------------------------------------------------------------|
G|--9-9-9--9-9--12-12-12--12-12--9-9-9--9-9--7----7-7-7--5~---9~---7~--|
D|--x-x-x--x-x---x--x--x---x--x--x-x-x--x-x--x----x-x-x--x----x----x---|
A|--7-7-7--7-7--10-10-10--10-10--7-7-7--7-7--5----5-5-5--3~---7~---5~--|
E|---------------------------------------------------------------------|

e|--------------------|
B|--------------------|
G|--------------------|
D|----------2---2-3---|
A|--3-2-3-5---5-------|
E|--------------------|

e|-------------------------------------------------------------------|
B|-------------------------------------------------------------------|
G|--9--9--9-9--12-12-12--12-12--9-9-9--9-9-7----7-7-7--5~---9~---7~--|
D|--x--x--x-x---x--x--x---x--x--x-x-x--x-x-x----x-x-x--x----x----x---|
A|--7--7--7-7--10-10-10--10-10--7-7-7--7-7-5----5-5-5--3~---7~---5~--|
E|-------------------------------------------------------------------|

e|--------------------|
B|--------------------|
G|--------------------|
D|----------2---2-3---|
A|--3-2-3-5---5-------|
E|--------------------|

(Verse) Guitar 1&2
e|-----------------------------------------------------------------|
B|-----------------------------------------------------------------|
G|-----------------------------------------------------------------|
D|-----------------------------------------------------------------|
A|--7-7-7-7-7-7-7-7-5-5-5-5-5-5-5-5-3-3-3-3-3-3-3-3-2-2-2-2-2-2-2-2|
E|--8-8-8-8-8-8-8-8-7-7-7-7-7-7-7-7-5-5-5-5-5-5-5-5-3-3-3-3-3-3-3-3|
 Looking into your eyes.....

e|----------------------------------------------------------|
B|----------------------------------------------------------|
G|----------------------------------------------------------|
D|----------------------------------------------------------|Repeat
A|-3-3-3-3-3-3-3-3-2-2-2-2-2-2-2-2-3-3-3-3-3-3-3-3--3---2---|
E|-1-1-1-1-1-1-1-1-3-3-3-3-3-3-3-3-1-1-1-1-1-1-1-1--5---3---|

Guitar 2 Fill
e|---------------------------------|
B|---------------------------------|
G|----0-4-5-4-0------5-------------|
D|---------------3-------5---------|
A|--0------------------------------|
E|---------------------------------|

(Chorus)
e|------------------------------------------|
B|------------------------------------------|
G|------------------------------------------|
D|------------------------------------------|Repeat
A|--3-3-3-3--2-2-2-2--3-3-3-3--2-2-2-2------|
E|--1-1-1-1--3-3-3-3--5-5-5-5--3-3-3-3------|
     And when i fall asleep.....

 Thats it....if i think of anything else, I'll add it. There might be 
 a couple fills from gtr 2 that I missed, so I'll try to figure them out.   
 Enjoy. 
            
Submit corrections

comments powered by Disqus
↑ Back to top | Taking Back Sunday Tabs for Like An Angel. Lyrics for acoustic guitar and electric guitar. 1 Tablatures and chords are parodies/interpretations of the original songs. You may use it for private study, scholarship, research or language learning purposes only