>
 >
Great Romances 2

Great Romances 2 Bass Tabs

Taking Back Sunday - Great Romances 2 chords, tabs, tablatures, lyrics

Guitar lessons | Add/correct | Request | Top 50 tabs Artists:  A B C D E F G H I J K L M N O P Q R S T U V W X Y Z 0-9

Great Romances 2 Bass Tabs – Taking Back Sunday

CD, Sheet music, Poster

Do you like Great Romances 2? Share with your friends now
Bass Tabs
Taking Back Sunday
Great Romances Of The 20th Century
Standard Tuning

Intro pt.1
|---------------------------------
|---------------------------------
|-------6--69-7--------6--69-7--
|-7-9------------7-9------------

Intro pt.2
|---------------------------------------------------
|---------------------------------------------------
|---976-9-7-6-4-4-4--7-6-4---976-9-7-6-4-4-4--7-6---
|-7------------------------7------------------------

verse pt.1 4x
|-----------------------------------------------------------------
|-----------------------------------------------------------------
|---------------------------------2-2-2-2-2-2-2-2----------------- 
|-4-4-4-4-4-4-4-4-0-0-0-0-0-0-0-0-----------------2-2-2-2-2-2-2-2-

verse pt.2  2x
|---------------------------------------------------------------------
|---------------------------------------------------------------------
|-2-1---------------------------------2-2-2-2-2-2-2-2----------------- 
|-----4-4-4-4-4-4-4-4-0-0-0-0-0-0-0-0-----------------2-2-2-2-2-2-2-2-

chorus 2x
|---------------------------------------------------------------------
|---------------------------------------------------------------------
|-2-1---------------------------------2-2-2-2-2-2-2-2----------------- 
|-----4-4-4-4-4-4-4-4-0-0-0-0-0-0-0-0-----------------2-2-2-2-2-2-2-2-

verse 2 pt.1
|----------------------------------------------------------------------
|----------------------------------------------------------------------
|----------------------------------------------------------------------
|-4-4-----2-2------0-0-----0-0-----4-4-----2-2-----0-0-----0-0---------

verse 2 pt.2 2x
|-----------------------------------------------------------------
|-----------------------------------------------------------------
|----------------------------------------------------------------- 
|-4-4-4-4-4-4-4-4-2-2-2-2-2-2-2-2-0-0-0-0-0-0-0-0-0-0-0-0-0-0-0-0-

breakdown
|------------------------------------------
|------------------------------------------
|-----------------2----2----2----2----2----
|-4-4-4-4-2-2-2-2-0-0--0-0--0-0--0-0--0-0-

|-------------------------------------------
|-------------------------------------------
|---------2-2-2-2--2----2----2----2----2----
|-4-4-4-4----------0-0--0-0--0-0--0-0--0-0-

|------------------------------------------
|------------------------------------------
|-----------------2----2----2----2----2----
|-4-4-4-4-2-2-2-2-0-0--0-0--0-0--0-0--0-0-

|-------------------------------------------
|-------------------------------------------
|---------2-2-2-2--2----2----2----2----2----
|-4-4-4-4----------0-0--0-0--0-0--0-0--0-0-

|--------------------------
|--------------------------
|-2----2----2----2----2----
|--0-0-0-0--0-0-0-0-0-0-

interlude
|---------------------------
|---------------------------
|---------------------------
|-7~0~7~0~7~0~7~7-7-7-7-7-7-

bridge pt.1 3x
|---------------------------------------------
|---------------------------------------------
|--------------------------------------------- 
|-4-4-4\2-2-2/4-4-4\2-2-2/4-2-0-0-0-0-0-0-0-0-

bridge pt.2
|-----------------------------------------
|-----------------------------------------
|-----------------------------------------
|-4-4-4\2-2-2/4-4-4\2-2-2/4-2-0~--0~------

closing 2x
|-----------------------------------------
|-----------------------------------------
|-----------------------------------------
|-4-4-4-4-4-4-4-4-4-4-2-2-2-2-2-2-2-2-2-2-

|-----------------------------------------
|-----------------------------------------
|-----------------------------------------
|-0-0-0-0-0-0-0-0-0-0-0-0-0-0-0-0-0-0-0-0-

outro
|-----------------------------------
|-----------------------------------
|-----------------------------------
|-4-4-4\2-2-2/4-4-4\2-2-2/4-4\2-2-0-





Comments


Popular Taking Back Sunday tabs & chords
Set Phasers To Stun Bass Tabs
Whats It Feel Like To Be A Ghost Chords
Alone Forever Tabs
Call Me In The Morning Intro Tabs
Cute With Out The E Cut From The Team Tabs
Devine Intervention Tabs
There Is No I In Team Tabs
Timberwolves At New Jersey 4 Tabs
Belgium Waffles Song Ukulele
Your Own Disaster Ukulele


Song lyrics



↑ Back to top | Tablatures and chords are parodies/interpretations of the original songs. You may use it for private study, scholarship, research or language learning purposes only
© 2014 AZChords.com Contact us | Privacy policy | DMCA | Add/correct tabs | Request tabs | Top 50 tabs