>
 >
Ghost Man On Third 1

Ghost Man On Third 1 Guitar Tabs

Taking Back Sunday - Ghost Man On Third 1 chords, tabs, tablatures, lyrics

Guitar lessons | Add/correct | Request | Top 50 tabs Artists:  A B C D E F G H I J K L M N O P Q R S T U V W X Y Z 0-9

Ghost Man On Third 1 Guitar Tabs – Taking Back Sunday

CD, Sheet music, Poster

Do you like Ghost Man On Third 1? Share with your friends now
Bass TabsChordsTabsTabs v2Tabs v3Ukulele
INTRO:
gtr.1
e|------2-------2-------2-------2-------0-------0-------0-------0-
B|----------------------------------------------------------------
G|--0-------0-------0-------0-------0-------0-------0-------0-----
D|2---2---2---2---0---0---0---0-----------------------------------
A|--------------------------------3---3---3---3---3---3---3---3---
E|----------------------------------------------------------------
gtr.2
e|------------------------------------------------7p0---0-2-0---0-
B|----------------------------------------------------0-------0---
G|----------------------------------------------------------------
D|----------------------------------------------------------------
A|----------------------------------------------------------------
E|----------------------------------------------------------------

VERSE 1 (gtr. 1 plays intro, gtr. 2 plays chords):

    Em9  D   C
e|---2---2---0-
B|---0---3---3-
G|---0---2---0-
D|---2---0---0-
A|---2---x---3-
E|---0---x---x-

Em9
Jinx me something crazy
D
Thinking if it's three 
C							      Em9
then I'm as smooth as the skin rolls across the small of your back 
			 D
It's too bad it's not my style 
               C
If you need me I'm out and on the parkway, 
C			Em9
patient and waiting for headlights, 
                 D
dressed in a fashion that's fitting to the 
C
inconsistencys of my moods 
     Em9	D			  C
It's times like these where silence means everything 
    C
And no one is to know about this 
     Em9	D			  C
It's times like these where silence means everything 
    C				Em9
And no one is to know about this 

CHORUS:


at this point guitar 1 plays this fill:
e|-----------------
B|-----------3-1---
G|-5-4-------------
D|-----5-4-5-------
A|-----------------
E|-----------------





Comments


Popular Taking Back Sunday tabs & chords
Follow The Format Bass Tabs
Spin Bass Tabs
Theres No I In Team Bass Tabs
My Blue Heaven Chords
Divine Intervention 7 Tabs
Error Operator Tabs
My Blue Heaven Tabs
This Is All Now 2 Tabs
Whats It Feel Like To Be A Ghost 3 Tabs
Where My Mouth Is 1 Tabs


Song lyrics



↑ Back to top | Tablatures and chords are parodies/interpretations of the original songs. You may use it for private study, scholarship, research or language learning purposes only
© 2014 AZChords.com Contact us | Privacy policy | DMCA | Add/correct tabs | Request tabs | Top 50 tabs