» » »

Everything Must Go Bass tabs (ver.2)

Artists:  A B C D E F G H I J K L M N O P Q R S T U V W X Y Z # 

Everything Must Go Bass tabs (ver.2)

Taking Back Sunday
Rating:
0/5 (0 votes)

Tabs too difficult? Try these video lessons and learn fast.
                -------------------------------------------------------------------------------
			Everything Must Go - Taking Back Sunday
-------------------------------------------------------------------------------


Tuning:EADG

Intro (0:33):
G|--------------------------------------------------------|
D|-----------------------------------------------666------|
A|----------------4444444444444444-88888888-66666---4~~~~~|
E|4444444444444444----------------------------------------|

Verse 1 (1:05)
G|---------------------------------------------------------------------------|
D|--------333~----------------------------333~-------------------------------|
A|666~------------444~----444~----666~------------444~---(4)/1616161616161616|
E|---------------------------------------------------------------------------|

Chorus (1:22)
G|-------------------------------------------------------------------|
D|-------------------------------------------------------------------|
A|----------------4444444444444444-8888888888888888-444444444444441h3|
E|4444444444444444---------------------------------------------------|

Verse 2 (1:37)
G|---------------------------------------------------------------------|
D|--------333~----------------------------333~-----------------6h8p~---|
A|666~------------444~----444~----666~------------444~--(4)/6h8--------|
E|---------------------------------------------------------------------|

G|---------------------------------------------------------------------------|
D|--------333~----------------------------333~-------------------------------|
A|666~------------444~----444~----666~------------444~---(4)/1616161616161616|
E|---------------------------------------------------------------------------|

Chorus (2:09)
G|------------------------------------------------------------------|
D|------------------------------------------------------------------|
A|----------------4444444444444444-8888888888888888-4444444444444444|
E|4444444444444444--------------------------------------------------|

G|--------------------------------------------------------|
D|-----------------------------------------------666------|
A|----------------4444444444444444-88888888-66666---4~~~~~|
E|4444444444444444----------------------------------------|

Bridge Break(2:42):There seems to be a low sound, right before the bass comes back in,
but its kinda hard to hear and it doesnt seem to be any notes being played, so i wont tab.

Bridge (2:57)

G|-----------------------------------------------------------6666666|
D|------------------------------------------------------------------|
A|----------------4444444444444444-8888888888888888-444444444-------|
E|4444444444444444--------------------------------------------------|
Chorus (3:13)
G|------------------------------------------------------------------|
D|-----------------------------------------------666----------------|
A|----------------4444444444444444-88888888-66666---4444444444444444|
E|4444444444444444--------------------------------------------------|

G|----------------------------------------------------------65--------|
D|-----------------------------------------------666----------6-86----|
A|----------------4444444444444444-88888888-66666---44444444------8-11|
E|4444444444444444----------------------------------------------------|

G|------------------------6-------------------------------|
D|-----------------------------------------------666------|
A|----------------44444444-4444444-88888888-66666---4~~~~~|
E|4444444444444444----------------------------------------|


| /  slide up
| \  slide down
| h  hammer-on
| p  pull-off
| ~  vibrato
| +  harmonic
| x  Mute note
===============================================================================
            
Tabs too difficult? Try these video lessons and learn fast.


comments powered by Disqus
↑ Back to top | Tablatures and chords are parodies/interpretations of the original songs. You may use it for private study, scholarship, research or language learning purposes only