» » »

Taking Back Sunday, Error Operator Tabs (ver.1)

Artists:  A B C D E F G H I J K L M N O P Q R S T U V W X Y Z # 

Error Operator Tabs (ver.1)

Taking Back Sunday Tabs
Rating:
0/5 (0 votes)
Error Operator lessons Tabs too difficult? Try these video lessons and learn fast
                
This song is very cool. I tabbed it a long time ago but never really got to post my version.

***To play the LOUDER NOW CD version, play it down a half step!***

Have fun. =)

-----(((((GUITAR I:)))))-----

Intro:

|----------------------------------|
|----------------------------------|
|----------------------------------|
|----------------------------------|
|----------------------------------|
|--0-0-0-0-0-0-0-0-0-0-0-0-0-0-0-0-|
PM  ...............................
(Listen for strumming.)


|-------------------------------------------|
|-------------------------------------------|
|--9-9--9-9--9-9--9-9--9-9--9-9--9--9--9--9-|
|--x-x--x-x--x-x--x-x--x-x--x-x--x--x--x--x-|
|--7-7--7-7--7-7--7-7--7-7--7-7--7--7--7--7-|
|-------------------------------------------|

Verse A:

|----------------------------------|x4
|----------------------------------|
|--------4-4-4-4-4-------7-7-7-7-7-|
|--2-2-2-4-4-4-4-4-5-5-5-7-7-7-7-7-|
|--2-2-2-2-2-2-2-2-5-5-5-5-5-5-5-5-|
|--0-0-0-----------3-3-3-----------|


Chorus:

|-------------------------------------------------------------------------------------------------|
|-------------------------------------------------------------------------------------------------|
|--5--5--5--5--5--5--5--5--------------------------7--7--7--7--7--7--7--7--7--7--7--7--7--7--7--7-|
|--5--5--5--5--5--5--5--5--5--5--5--5--5--5--5--5--7--7--7--7--7--7--7--7--7--7--7--7--7--7--7--7-|
|--3--3--3--3--3--3--3--3--5--5--5--5--5--5--5--5--5--5--5--5--5--5--5--5--5--5--5--5--5--5--5--5-|
|--------------------------3--3--3--3--3--3--3--3-------------------------------------------------|


Verse A: x4


Verse B:

|-----------------------------------------------------------------|
|-----------------------------------------------------------------|
|-9-9-9-9-9-9-9-9-9-9-9-9-9-9-9-9-9-9-9-9-9-9-9-9-9-9-9-9-9-9-9-9-|
|-x-x-x-x-x-x-x-x-x-x-x-x-x-x-x-x-x-x-x-x-x-x-x-x-x-x-x-x-x-x-x-x-|
|-7-7-7-7-7-7-7-7-7-7-7-7-7-7-7-7-7-7-7-7-7-7-7-7-7-7-7-7-7-7-7-7-|
|-----------------------------------------------------------------|

(You can do a pickslide, or continue strumming, either way it sounds nice.)


Chorus: (This time the ending goes)
|-----------------------------------------------------------------------------------|
|-----------------------------------------------------------------------------------|
|--5--5--5--5--5--5--5--5-----------------------------------------------------------|
|--5--5--5--5--5--5--5--5--5--5--5--5--5--5--5--5-----------------------------------|
|--3--3--3--3--3--3--3--3--5--5--5--5--5--5--5--5-----5---5h7---------5---5h7-----7~|
|--------------------------3--3--3--3--3--3--3--3-0-0---0-------0-0-0---0-----0-0---|


Breakdown:

|-12p0-----------12p0-----------10p0------9p0----------7p0---------5p0-----|x14?
|------0h10h12p0------0h10h12p0------0h10-----0h8h10p0-----0h7h8p0-----7p0-|
|--------------------------------------------------------------------------|
|--------------------------------------------------------------------------|
|--------------------------------------------------------------------------|
|--------------------------------------------------------------------------|

Chorus


Finish with:

|-----------------------------------|
|-----------------------------------|
|-----------------------------------|
|-----------------------------------|
|-----5---5-7---------5---5-7-------|
|-0-0---0-----0-0-0-0---0-----0-0-0-|


-----(((((GUITAR II:)))))-----

Intro:

|---Rest---|

Then play...
|-------------------------------------------|
|-------------------------------------------|
|-12---12---12---12---12---12---12-11-11-12-|
|--x----x----x----x----x----x----x--x--x--x-|
|-10---10---10---10---10---10---10--9--9-10-|
|-------------------------------------------|

Continued...
|--------------------------------------|
|--------------------------------------|
|-12---12---12---12---12-12-12-12-12---|
|--x----x----x----x----x--x--x--x--x---|
|-10---10---10---10---10-10-10-10-10---|
|--------------------------------------|


Verse A:
|---------------------------------|
|---------------------------------|
|---------------------------------|
|-------4-4-4-4-4-------7-7-7-7-7-|
|-2-2-2-2-2-2-2-2-5-5-5-5-5-5-5-5-|
|-0-0-0-----------3-3-3-----------|

|-------------------------------------------|
|-------------------------------------------|
|-12---12---12---12---12---12---12-11-11-12-|
|-x----x----x----x----x----x----x--x--x--x--|
|-10---10---10---10---10---10---10--9--9-10-|
|-------------------------------------------|


Chorus:

|-------------------------------------------------------------------------------------------------|
|-------------------------------------------------------------------------------------------------|
|-16-16-16-16-16-16-16-16-16-16-16-16-16-16-16-16-14-14-14-14-14-14-14-14-14-14-14-14-14-14-14-14-|
|--x--x--x--x--x--x--x--x--x--x--x--x--x--x--x--x--x--x--x--x--x--x--x--x--x--x--x--x--x--x--x--x-|
|-14-14-14-14-14-14-14-14-14-14-14-14-14-14-14-14-12-12-12-12-12-12-12-12-12-12-12-12-12-12-12-12-|
|-------------------------------------------------------------------------------------------------|


|---------------------------|
|---------------------------|
|-/16p14----16p14-----------|
|--------17-------17--------|
|---------------------------|
|---------------------------|


Verse A: x4


Verse B:
|---------------------------------------------------------------------|
|---------------------------------------------------------------------|
|---------------------------------------------------------------------|
|-------14-----14---------12-----12---------11-----11---------9-----9-|
|---------------------------------------------------------------------|
|-0-0-0----0-0------0-0-0----0-0------0-0-0----0-0------0-0-0---0-0---|
PM.....    ...      .....    ...      .....    ...      .....   ...

|-----------------------------------------------------------------|
|-----------------------------------------------------------------|
|-----------------------------------------------------------------|
|-------14-----14-------12-----12-------11-----11-9-9-9-9-9-9-9-9-|
|-------------------------------------------------x-x-x-x-x-x-x-x-|
|-0-0-0----0-0----0-0-0----0-0----0-0-0----0-0----0-0-0-0-0-0-0-0-|
  .....    ...    .....    ...    .....    ...


Chorus:


Breakdown:

|---------------------------------------------------------------------|x7
|---------------------------------------------------------------------|
|---------------------------------------------------------------------|
|-------14-----14---------12-----12---------11-----11---------9-----9-|
|---------------------------------------------------------------------|
|-0-0-0----0-0------0-0-0----0-0------0-0-0----0-0------0-0-0---0-0---|
PM.....    ...      .....    ...      .....    ...      .....   ...


|--------------------------------------------------------------------------------|
|--------------------------------------------------------------------------------|
|--------------------------------------------------------------------------------|
|--------12------14-----------12------14----------12------14---------12-----14---|
|--------------------------------------------------------------------------------|  etc.
|--0-0-0-----0-0------0--0--0-----0-0-------0-0-0-----0-0------0-0-0----0-0------|
PM .....     ...      .......     ...       .....     ...      .....    ...


|------------------------------------------------------------------------------|
|------------------------------------------------------------------------------|
|---9-9-9--9--9-9--9-9-9--7--7-7--7-7-7--7-7-6-6-6-6-6-6-6-6-6-4-4-4-4-4-4-4-4-|
|---x-x-x--x--x-x--x-x-x--x--x-x--x-x-x--x-x-x-x-x-x-x-x-x-x-x-x-x-x-x-x-x-x-x-|
|---7-7-7--7--7-7--7-7-7--5--5-5--5-5-5--5-5-4-4-4-4-4-4-4-4-4-2-2-2-2-2-2-2-2-|
|------------------------------------------------------------------------------|


Chorus

Finish with:
|---------------------------------------|
|---------------------------------------|
|---------------------------------------|
|---------------------------------------|
|-----5---5-7---------5---5-7-----------|
|-0-0---0-----0-0-0-0---0-----0-0-0-----|

There is also a Third Guitar that kicks in during the breakdown, it isn't needed, but
is basically what it does.
| Gtr III
|-------------------------------------------|
|-------------------------------------------|
|--9-9-9--9--9-9--9-9-9--9--9--9--9-9--9--9-|
|--x-x-x--x--x-x--x-x-x--x--x--x--x-x--x--x-|
|--7-7-7--7--7-7--7-7-7--7--7--7--7-7--7--7-|
|-------------------------------------------|
            

comments powered by Disqus
↑ Back to top | Taking Back Sunday Tabs for Error Operator. Lyrics for acoustic guitar and electric guitar. Tablatures and chords are parodies/interpretations of the original songs. You may use it for private study, scholarship, research or language learning purposes only