>
 >
Eleven 2

Eleven 2 Guitar Tabs

Taking Back Sunday - Eleven 2 chords, tabs, tablatures, lyrics

Guitar lessons | Add/correct | Request | Top 50 tabs Artists:  A B C D E F G H I J K L M N O P Q R S T U V W X Y Z 0-9

Eleven 2 Guitar Tabs – Taking Back Sunday

CD, Sheet music, Poster

Do you like Eleven 2? Share with your friends now
TabsTabs v2Tabs v3
Intro of eleven by taking back Sunday

1st guitar:

e -19~ --------------
b ----19~ - 20~ -----
g ----------------19~
d -------------------
a -------------------
e -------------------

2nd guitar:

e ---------------------------------------
b ---------------------------------------
g 4---4---------------------------------
d 5---55-4-0-4-0-4p5-2-0-5-0-2-4-0-5-0-4
a ---------------------------------------
e ---------------------------------------
p = pull off
~ = let ring

please rate this. thanks.





Comments


Popular Taking Back Sunday tabs & chords
Spin Bass Tabs
Makedamnsure 1 Chords
Call Me In The Morning 2 Tabs
Lonely Lonely Tabs
Make Damn Sure Tabs
New American Classic 5 Tabs
This Is All Now 2 Tabs
Capital M-e Ukulele
Makedamnsure Ukulele
This Photograph Is Proof Ukulele


Song lyrics



↑ Back to top | Tablatures and chords are parodies/interpretations of the original songs. You may use it for private study, scholarship, research or language learning purposes only
© 2014 AZChords.com Contact us | Privacy policy | DMCA | Add/correct tabs | Request tabs | Top 50 tabs