» » »

Eleven Tabs (ver.2)

Artists:  A B C D E F G H I J K L M N O P Q R S T U V W X Y Z # 

Eleven Tabs (ver.2)

Taking Back Sunday
Rating:
0/5 (0 votes)

Hard to play? Try these video lessons and learn fast.
                Band = Taking Back Sunday
Song = Eleven

This tab is correct!! The others are not!! I saw them play it live!!

Intro Guitar 1:(00:00-00:43)
E|---19--------15---------|
B|--------19-------15-----|
G|------------------------|
D|------------------------|
A|------------------------|
E|------------------------|

Intro Guitar 2:(00:15-00:43)
E|------------------------------------------------|
B|------------------------------------------------|
G|-----4---4--------------------------------------|
D|---5---5---5--4---4---4-------------------------|
A|----------------5---5----7---7---7--9----9----9-|
E|---------------------------8---8------10---10---|

Thank You For Your Time!!!
            
Hard to play? Try these video lessons and learn fast. | Correct




comments powered by Disqus
↑ Back to top | Tablatures and chords are parodies/interpretations of the original songs. You may use it for private study, scholarship, research or language learning purposes only