» » »

Taking Back Sunday, Divine Intervention Tabs (ver.4)

Artists:  A B C D E F G H I J K L M N O P Q R S T U V W X Y Z # 

Divine Intervention Tabs (ver.4)

Taking Back Sunday Tabs
 Rating:
4/5 (4 votes)
Divine Intervention lessons Tabs too difficult? Try these video lessons and learn fast
                
Strumming –(4\4 Tempo) (~122bpm) (*=hard beats) (D=Down) (U=Up)

Standard Tuning
   1 + 2 + 3 + 4 + 1 + 2 + 3 + 4 + 1 + 2 + 3 + 4 + 1 + 2 + 3 + 4 +
E---|D*D-D-D*D-D-D*DUD*D-D-D*D-D-D*D-D*D-D-D*D-D-D*DUD*D-D-D*D-D-D*D
G---|D*D-D-D*D-D-D*DUD*D-D-D*D-D-D*D-D*D-D-D*D-D-D*DUD*D-D-D*D-D-D*D
B---|D*D-D-D*D-D-D*DUD*D-D-D*D-D-D*D-D*D-D-D*D-D-D*DUD*D-D-D*D-D-D*D
D---|D*D-D-D*D-D-D*DUD*D-D-D*D-D-D*D-D*D-D-D*D-D-D*DUD*D-D-D*D-D-D*D
A---|D*D-D-D*D-D-D*DUD*D-D-D*D-D-D*D-D*D-D-D*D-D-D*DUD*D-D-D*D-D-D*D
E---|D*D-D-D*D-D-D*DUD*D-D-D*D-D-D*D-D*D-D-D*D-D-D*DUD*D-D-D*D-D-D*D

Intro X 2
   1 + 2 + 3 + 4 + 1 + 2 + 3 + 4 + 1 + 2 + 3 + 4 + 1 + 2 + 3 + 4 +
E|-----------------------------------------------------------------|
G|-----------------------------------------------------------------|
B|-----------------------------------------------------------------|
D|-6-6-6-6-6-6-6-668-8-8-8-8-8-8-8-5-5-5-5-5-5-5-556-6-6-6-6-6-6-6-|
A|-6-6-6-6-6-6-6-668-8-8-8-8-8-8-8-6-6-6-6-6-6-6-666-6-6-6-6-6-6-6-|
E|-4-4-4-4-4-4-4-446-6-6-6-6-6-6-6-3-3-3-3-3-3-3-334-4-4-4-4-4-4-4-|

Verse 1
   1 + 2 + 3 + 4 + 1 + 2 + 3 + 4 + 1 + 2 + 3 + 4 + 1 + 2 + 3 + 4 +
E|-----------------------------------------------------------------|
G|-----------------------------------------------------------------|
B|-----------------------------------------------------------------|
D|-6-6-6-6-6-6-6-668-8-8-8-8-8-8-8-5-5-5-5-5-5-5-556-6-6-6-6-6-6-6-|
A|-6-6-6-6-6-6-6-668-8-8-8-8-8-8-8-6-6-6-6-6-6-6-666-6-6-6-6-6-6-6-|
E|-4-4-4-4-4-4-4-446-6-6-6-6-6-6-6-3-3-3-3-3-3-3-334-4-4-4-4-4-4-4-|

Despondent, distracted, You're vicious and romantic;
These are a few of my favorite things.
All of those flavors and this is what you choose:
Past the blues, past the blues, And on to something new.

Chorus X 2
   1 + 2 + 3 + 4 + 1 + 2 + 3 + 4 + 1 + 2 + 3 + 4 + 1 + 2 + 3 + 4 +
E|-----------------------------------------------------------------|
G|-----------------------------------------------------------------|
B|-6-6-6-6-6-6-6-666-6-6-6-6-6-6-6---------------------------------|
D|-6-6-6-6-6-6-6-666-6-6-6-6-6-6-6-8-8-8-8-8-8-8-888-8-8-8-8-8-8-8-|
A|-4-4-4-4-4-4-4-444-4-4-4-4-4-4-4-8-8-8-8-8-8-8-888-8-8-8-8-8-8-8-|
E|---------------------------------6-6-6-6-6-6-6-666-6-6-6-6-6-6-6-|

E|-----------------------------------------------------------------|
G|-----------------------------------------------------------------|
B|-----------------------------------------------------------------|
D|-6-6-6-6-6-6-6-665-5-5-5-5-5-5-5-3-3-3-3-3-3-3-333-3-3-3-3-3-3-3-|
A|-6-6-6-6-6-6-6-666-6-6-6-6-6-6-6-3-3-3-3-3-3-3-333-3-3-3-3-3-3-3-|
E|-4-4-4-4-4-4-4-443-3-3-3-3-3-3-3-1-1-1-1-1-1-1-111-1-1-1-1-1-1-1-|

E|----------------------------------------------------------------|
G|----------------------------------------------------------------|
B|----------------------------------------------------------------|
D|-6---6---6-6-5--------------------------------------------------|
A|-6---6---6-6-6--------------------------------------------------|
E|-4---4---4-4-3--------------------------------------------------|

Something real, make it timeless
An act of God and nothing else will be accepted.
So if you're calling me out,
Then count me out.

Intro Riff

Verse 2
   1 + 2 + 3 + 4 + 1 + 2 + 3 + 4 + 1 + 2 + 3 + 4 + 1 + 2 + 3 + 4 +
E|-----------------------------------------------------------------|
G|-----------------------------------------------------------------|
B|-----------------------------------------------------------------|
D|-6-6-6-6-6-6-6-668-8-8-8-8-8-8-8-5-5-5-5-5-5-5-556-6-6-6-6-6-6-6-|
A|-6-6-6-6-6-6-6-668-8-8-8-8-8-8-8-6-6-6-6-6-6-6-666-6-6-6-6-6-6-6-|
E|-4-4-4-4-4-4-4-446-6-6-6-6-6-6-6-3-3-3-3-3-3-3-334-4-4-4-4-4-4-4-|

Yeah, we're stubborn and melodramatic, A real class act.
You see, I know a few of your favorite things.
Five in the morning and all comes out pouring,
Love, out the same way in.

Chorus x 2
   1 + 2 + 3 + 4 + 1 + 2 + 3 + 4 + 1 + 2 + 3 + 4 + 1 + 2 + 3 + 4 +
E|-----------------------------------------------------------------|
G|-----------------------------------------------------------------|
B|-6-6-6-6-6-6-6-666-6-6-6-6-6-6-6---------------------------------|
D|-6-6-6-6-6-6-6-666-6-6-6-6-6-6-6-8-8-8-8-8-8-8-888-8-8-8-8-8-8-8-|
A|-4-4-4-4-4-4-4-444-4-4-4-4-4-4-4-8-8-8-8-8-8-8-888-8-8-8-8-8-8-8-|
E|---------------------------------6-6-6-6-6-6-6-666-6-6-6-6-6-6-6-|

E|-----------------------------------------------------------------|
G|-----------------------------------------------------------------|
B|-----------------------------------------------------------------|
D|-6-6-6-6-6-6-6-665-5-5-5-5-5-5-5-3-3-3-3-3-3-3-333-3-3-3-3-3-3-3-|
A|-6-6-6-6-6-6-6-666-6-6-6-6-6-6-6-3-3-3-3-3-3-3-333-3-3-3-3-3-3-3-|
E|-4-4-4-4-4-4-4-443-3-3-3-3-3-3-3-1-1-1-1-1-1-1-111-1-1-1-1-1-1-1-|

E|----------------------------------------------------------------|
G|----------------------------------------------------------------|
B|----------------------------------------------------------------|
D|-6---6---6-6-5--------------------------------------------------|
A|-6---6---6-6-6--------------------------------------------------|
E|-4---4---4-4-3--------------------------------------------------|

Something real, make it timeless,
An act of God and nothing else will be accepted.
Now if you're calling me out,
Then count me out.

Bridge X 4
   1 + 2 + 3 + 4 + 1 + 2 + 3 + 4 + 1 + 2 + 3 + 4 + 1 + 2 + 3 + 4 +
E|-----------------------------------------------------------------|
G|-----------------------------------------------------------------|
B|-----------------------------------------------------------------|
D|-6-6-6-6-6-6-6-668-8-8-8-8-8-8-8-5-5-5-5-5-5-5-556-6-6-6-6-6-6-6-|
A|-6-6-6-6-6-6-6-668-8-8-8-8-8-8-8-6-6-6-6-6-6-6-666-6-6-6-6-6-6-6-|
E|-4-4-4-4-4-4-4-446-6-6-6-6-6-6-6-3-3-3-3-3-3-3-334-4-4-4-4-4-4-4-|

Chourus #2
   1 + 2 + 3 + 4 + 1 + 2 + 3 + 4 + 1 + 2 + 3 + 4 + 1 + 2 + 3 + 4 +
E|-----------------------------------------------------------------|
G|-----------------------------------------------------------------|
B|-6-6-6-6-6-6-6-666-6-6-6-6-6-6-6---------------------------------|
D|-6-6-6-6-6-6-6-666-6-6-6-6-6-6-6-8-8-8-8-8-8-8-888-8-8-8-8-8-8-8-|
A|-4-4-4-4-4-4-4-444-4-4-4-4-4-4-4-8-8-8-8-8-8-8-888-8-8-8-8-8-8-8-|
E|---------------------------------6-6-6-6-6-6-6-666-6-6-6-6-6-6-6-|

E|-----------------------------------------------------------------|
G|-----------------------------------------------------------------|
B|-----------------------------------------------------------------|
D|-6-6-6-6-6-6-6-665-5-5-5-5-5-5-5-3-3-3-3-3-3-3-333-3-3-3-3-3-3-3-|
A|-6-6-6-6-6-6-6-666-6-6-6-6-6-6-6-3-3-3-3-3-3-3-333-3-3-3-3-3-3-3-|
E|-4-4-4-4-4-4-4-443-3-3-3-3-3-3-3-1-1-1-1-1-1-1-111-1-1-1-1-1-1-1-|

Repeat

E|----------------------------------------------------------------|
G|----------------------------------------------------------------|
B|----------------------------------------------------------------|
D|-6---6---6-6-5--------------------------------------------------|
A|-6---6---6-6-6--------------------------------------------------|
E|-4---4---4-4-3--------------------------------------------------|

Something real, make it timeless,
An act of God and nothing else will be accepted.
I said real, make it timeless,
An act of God and nothing else will be accepted.
Now if you're calling me out,
Then count me out.


Intro Riff – End on:
E|---
G|---
B|---
D|-6-
A|-6-
E|-4-

Mm, mm, mm, mm.
Mm, mm, mmmm.
            
Submit corrections

comments powered by Disqus
↑ Back to top | Taking Back Sunday Tabs for Divine Intervention. Lyrics for acoustic guitar and electric guitar. Tablatures and chords are parodies/interpretations of the original songs. You may use it for private study, scholarship, research or language learning purposes only