» » »

Divine Intervention Tabs (ver.1)

Artists:  A B C D E F G H I J K L M N O P Q R S T U V W X Y Z # 

Divine Intervention Tabs (ver.1)

Taking Back Sunday
Rating:
0/5 (0 votes)

Tabs too difficult? Try these video lessons and learn fast.
                

**Guitars tuned down 1/2 step to E flat.

Intro/Verse:
(0:07)
eb|-----------------|-----------------|-----------------|-----------------|
Bb|-----------------|-----------------|-----------------|-----------------|
Gb|-----------------|-----------------|-----------------|-----------------|
Db|-7-7-7-7-7-7-7-7-|-9-9-9-9-9-9-9-9-|-6-6-6-6-6-6-6-6-|-7-7-7-7-7-7-7-7-|
Ab|-7-7-7-7-7-7-7-7-|-9-9-9-9-9-9-9-9-|-7-7-7-7-7-7-7-7-|-7-7-7-7-7-7-7-7-|
Eb|-5-5-5-5-5-5-5-5-|-7-7-7-7-7-7-7-7-|-4-4-4-4-4-4-4-4-|-5-5-5-5-5-5-5-5-|

eb|-----------------|-----------------|-----------------|-----------------|
Bb|-----------------|-----------------|-----------------|-----------------|
Gb|-----------------|-----------------|-----------------|-----------------|
Db|-7-7-7-7-7-7-7-7-|-9-9-9-9-9-9-9-9-|-6-6-6-6-6-6-6-6-|-7-7-7-7-7-7-7-7-|
Ab|-7-7-7-7-7-7-7-7-|-9-9-9-9-9-9-9-9-|-7-7-7-7-7-7-7-7-|-7-7-7-7-7-7-7-7-|
Eb|-5-5-5-5-5-5-5-5-|-7-7-7-7-7-7-7-7-|-4-4-4-4-4-4-4-4-|-5-5-5-5-5-5-5-5-|

(0:23)
eb|-----------------|-----------------|-----------------|-----------------|
Bb|-----------------|-----------------|-----------------|-----------------|
Gb|-----------------|-----------------|-----------------|-----------------|
Db|-7-7-7-7-7-7-7-7-|-9-9-9-9-9-9-9-9-|-6-6-6-6-6-6-6-6-|-7-7-7-7-7-7-7-7-|
Ab|-7-7-7-7-7-7-7-7-|-9-9-9-9-9-9-9-9-|-7-7-7-7-7-7-7-7-|-7-7-7-7-7-7-7-7-|
Eb|-5-5-5-5-5-5-5-5-|-7-7-7-7-7-7-7-7-|-4-4-4-4-4-4-4-4-|-5-5-5-5-5-5-5-5-|

eb|-----------------|-----------------|-----------------|-----------------|
Bb|-----------------|-----------------|-----------------|-----------------|
Gb|-----------------|-----------------|-----------------|-----------------|
Db|-7-7-7-7-7-7-7-7-|-9-9-9-9-9-9-9-9-|-6-6-6-6-6-6-6-6-|-7-7-7-7-7-7-7-7-|
Ab|-7-7-7-7-7-7-7-7-|-9-9-9-9-9-9-9-9-|-7-7-7-7-7-7-7-7-|-7-7-7-7-7-7-7-7-|
Eb|-5-5-5-5-5-5-5-5-|-7-7-7-7-7-7-7-7-|-4-4-4-4-4-4-4-4-|-5-5-5-5-5-5-5-5-|

eb|-----------------|-----------------|-----------------|-----------------|
Bb|-----------------|-----------------|-----------------|-----------------|
Gb|-----------------|-----------------|-----------------|-----------------|
Db|-7-7-7-7-7-7-7-7-|-9-9-9-9-9-9-9-9-|-6-6-6-6-6-6-6-6-|-7-7-7-7-7-7-7-7-|
Ab|-7-7-7-7-7-7-7-7-|-9-9-9-9-9-9-9-9-|-7-7-7-7-7-7-7-7-|-7-7-7-7-7-7-7-7-|
Eb|-5-5-5-5-5-5-5-5-|-7-7-7-7-7-7-7-7-|-4-4-4-4-4-4-4-4-|-5-5-5-5-5-5-5-5-|


Chorus:
(0:54)
eb|-----------------|-----------------|-----------------|-----------------|
Bb|-----------------|-----------------|-----------------|-----------------|
Gb|-7-7-7-7-7-7-7-7-|-7-7-7-7-7-7-7-7-|-----------------|-----------------|
Db|-7-7-7-7-7-7-7-7-|-7-7-7-7-7-7-7-7-|-9-9-9-9-9-9-9-9-|-9-9-9-9-9-9-9-9-|
Ab|-5-5-5-5-5-5-5-5-|-5-5-5-5-5-5-5-5-|-9-9-9-9-9-9-9-9-|-9-9-9-9-9-9-9-9-|
Eb|-----------------|-----------------|-7-7-7-7-7-7-7-7-|-7-7-7-7-7-7-7-7-|

eb|-----------------|-----------------|-----------------|-----------------|-----------|
Bb|-----------------|-----------------|-----------------|-----------------|-----------|
Gb|-----------------|-----------------|-----------------|-----------------|-----------|
Db|-7-7-7-7-7-7-7-7-|-6-6-6-6-6-6-6-6-|-4-4-4-4-4-4-4-4-|-4-4-4-4-4-4-4-4-|-7-7--7-6~-|
Ab|-7-7-7-7-7-7-7-7-|-7-7-7-7-7-7-7-7-|-4-4-4-4-4-4-4-4-|-4-4-4-4-4-4-4-4-|-7-7--7-7~-|
Eb|-5-5-5-5-5-5-5-5-|-4-4-4-4-4-4-4-4-|-2-2-2-2-2-2-2-2-|-2-2-2-2-2-2-2-2-|-0-0--0-0~-|


Verse:
(1:14)
eb|-----------------|-----------------|-----------------|-----------------|
Bb|-----------------|-----------------|-----------------|-----------------|
Gb|-----------------|-----------------|-----------------|-----------------|
Db|-7-7-7-7-7-7-7-7-|-9-9-9-9-9-9-9-9-|-6-6-6-6-6-6-6-6-|-7-7-7-7-7-7-7-7-|
Ab|-7-7-7-7-7-7-7-7-|-9-9-9-9-9-9-9-9-|-7-7-7-7-7-7-7-7-|-7-7-7-7-7-7-7-7-|
Eb|-5-5-5-5-5-5-5-5-|-7-7-7-7-7-7-7-7-|-4-4-4-4-4-4-4-4-|-5-5-5-5-5-5-5-5-|

eb|-----------------|-----------------|-----------------|-----------------|
Bb|-----------------|-----------------|-----------------|-----------------|
Gb|-----------------|-----------------|-----------------|-----------------|
Db|-7-7-7-7-7-7-7-7-|-9-9-9-9-9-9-9-9-|-6-6-6-6-6-6-6-6-|-7-7-7-7---------|
Ab|-7-7-7-7-7-7-7-7-|-9-9-9-9-9-9-9-9-|-7-7-7-7-7-7-7-7-|-7-7-7-7---------|
Eb|-5-5-5-5-5-5-5-5-|-7-7-7-7-7-7-7-7-|-4-4-4-4-4-4-4-4-|-5-5-5-5---------|

eb|-----------------|-----------------|-----------------|-----------------|
Bb|-----------------|-----------------|-----------------|-----------------|
Gb|-----------------|-----------------|-----------------|-----------------|
Db|-7-7-7-7-7-7-7-7-|-9-9-9-9-9-9-9-9-|-6-6-6-6-6-6-6-6-|-7-7-7-7-7-7-7-7-|
Ab|-7-7-7-7-7-7-7-7-|-9-9-9-9-9-9-9-9-|-7-7-7-7-7-7-7-7-|-7-7-7-7-7-7-7-7-|
Eb|-5-5-5-5-5-5-5-5-|-7-7-7-7-7-7-7-7-|-4-4-4-4-4-4-4-4-|-5-5-5-5-5-5-5-5-|

eb|-----------------|-----------------|-----------------|-----------------|
Bb|-----------------|-----------------|-----------------|-----------------|
Gb|-----------------|-----------------|-----------------|-----------------|
Db|-7-7-7-7-7-7-7-7-|-9-9-9-9-9-9-9-9-|-6-6-6-6-6-6-6-6-|-7-7-7-7---------|
Ab|-7-7-7-7-7-7-7-7-|-9-9-9-9-9-9-9-9-|-7-7-7-7-7-7-7-7-|-7-7-7-7---------|
Eb|-5-5-5-5-5-5-5-5-|-7-7-7-7-7-7-7-7-|-4-4-4-4-4-4-4-4-|-5-5-5-5---------|

eb|-----------------|-----------------|-----------------|-----------------|
Bb|-----------------|-----------------|-----------------|-----------------|
Gb|-----------------|-----------------|-----------------|-----------------|
Db|-7-7-7-7-7-7-7-7-|-9-9-9-9-9-9-9-9-|-6-6-6-6-6-6-6-6-|-7-7-7-7-7-7-7-7-|
Ab|-7-7-7-7-7-7-7-7-|-9-9-9-9-9-9-9-9-|-7-7-7-7-7-7-7-7-|-7-7-7-7-7-7-7-7-|
Eb|-5-5-5-5-5-5-5-5-|-7-7-7-7-7-7-7-7-|-4-4-4-4-4-4-4-4-|-5-5-5-5-5-5-5-5-|

eb|-----------------|-----------------|-----------------|-----------------|
Bb|-----------------|-----------------|-----------------|-----------------|
Gb|-----------------|-----------------|-----------------|-----------------|
Db|-7-7-7-7-7-7-7-7-|-9-9-9-9-9-9-9-9-|-6-6-6-6-6-6-6-6-|-7-7-7-7-7-7-7-7-|
Ab|-7-7-7-7-7-7-7-7-|-9-9-9-9-9-9-9-9-|-7-7-7-7-7-7-7-7-|-7-7-7-7-7-7-7-7-|
Eb|-5-5-5-5-5-5-5-5-|-7-7-7-7-7-7-7-7-|-4-4-4-4-4-4-4-4-|-5-5-5-5-5-5-5-5-|


Chorus:
(2:01)
eb|-----------------|-----------------|-----------------|-----------------|
Bb|-----------------|-----------------|-----------------|-----------------|
Gb|-7-7-7-7-7-7-7-7-|-7-7-7-7-7-7-7-7-|-----------------|-----------------|
Db|-7-7-7-7-7-7-7-7-|-7-7-7-7-7-7-7-7-|-9-9-9-9-9-9-9-9-|-9-9-9-9-9-9-9-9-|
Ab|-5-5-5-5-5-5-5-5-|-5-5-5-5-5-5-5-5-|-9-9-9-9-9-9-9-9-|-9-9-9-9-9-9-9-9-|
Eb|-----------------|-----------------|-7-7-7-7-7-7-7-7-|-7-7-7-7-7-7-7-7-|

eb|-----------------|-----------------|-----------------|-----------------|-----------|
Bb|-----------------|-----------------|-----------------|-----------------|-----------|
Gb|-----------------|-----------------|-----------------|-----------------|-----------|
Db|-7-7-7-7-7-7-7-7-|-6-6-6-6-6-6-6-6-|-4-4-4-4-4-4-4-4-|-4-4-4-4-4-4-4-4-|-7-7--7-6~-|
Ab|-7-7-7-7-7-7-7-7-|-7-7-7-7-7-7-7-7-|-4-4-4-4-4-4-4-4-|-4-4-4-4-4-4-4-4-|-7-7--7-7~-|
Eb|-5-5-5-5-5-5-5-5-|-4-4-4-4-4-4-4-4-|-2-2-2-2-2-2-2-2-|-2-2-2-2-2-2-2-2-|-0-0--0-0~-|


Bridge (same as verse w/ effects):
(2:19)
eb|-----------------|-----------------|-----------------|-----------------|
Bb|-----------------|-----------------|-----------------|-----------------|
Gb|-----------------|-----------------|-----------------|-----------------|
Db|-7-7-7-7-7-7-7-7-|-9-9-9-9-9-9-9-9-|-6-6-6-6-6-6-6-6-|-7-7-7-7-7-7-7-7-|
Ab|-7-7-7-7-7-7-7-7-|-9-9-9-9-9-9-9-9-|-7-7-7-7-7-7-7-7-|-7-7-7-7-7-7-7-7-|
Eb|-5-5-5-5-5-5-5-5-|-7-7-7-7-7-7-7-7-|-4-4-4-4-4-4-4-4-|-5-5-5-5-5-5-5-5-|

eb|-----------------|-----------------|-----------------|-----------------|
Bb|-----------------|-----------------|-----------------|-----------------|
Gb|-----------------|-----------------|-----------------|-----------------|
Db|-7-7-7-7-7-7-7-7-|-9-9-9-9-9-9-9-9-|-6-6-6-6-6-6-6-6-|-7-7-7-7-7-7-7-7-|
Ab|-7-7-7-7-7-7-7-7-|-9-9-9-9-9-9-9-9-|-7-7-7-7-7-7-7-7-|-7-7-7-7-7-7-7-7-|
Eb|-5-5-5-5-5-5-5-5-|-7-7-7-7-7-7-7-7-|-4-4-4-4-4-4-4-4-|-5-5-5-5-5-5-5-5-|

eb|-----------------|-----------------|-----------------|-----------------|
Bb|-----------------|-----------------|-----------------|-----------------|
Gb|-----------------|-----------------|-----------------|-----------------|
Db|-7-7-7-7-7-7-7-7-|-9-9-9-9-9-9-9-9-|-6-6-6-6-6-6-6-6-|-7-7-7-7-7-7-7-7-|
Ab|-7-7-7-7-7-7-7-7-|-9-9-9-9-9-9-9-9-|-7-7-7-7-7-7-7-7-|-7-7-7-7-7-7-7-7-|
Eb|-5-5-5-5-5-5-5-5-|-7-7-7-7-7-7-7-7-|-4-4-4-4-4-4-4-4-|-5-5-5-5-5-5-5-5-|

eb|-----------------|-----------------|-----------------|-----------------|
Bb|-----------------|-----------------|-----------------|-----------------|
Gb|-----------------|-----------------|-----------------|-----------------|
Db|-7-7-7-7-7-7-7-7-|-9-9-9-9-9-9-9-9-|-6-6-6-6-6-6-6-6-|-7-7-------------|
Ab|-7-7-7-7-7-7-7-7-|-9-9-9-9-9-9-9-9-|-7-7-7-7-7-7-7-7-|-7-7-------------|
Eb|-5-5-5-5-5-5-5-5-|-7-7-7-7-7-7-7-7-|-4-4-4-4-4-4-4-4-|-5-5-------------|


Chorus:
(2:51)
eb|-----------------|-----------------|-----------------|-----------------|
Bb|-----------------|-----------------|-----------------|-----------------|
Gb|-7-7-7-7-7-7-7-7-|-7-7-7-7-7-7-7-7-|-----------------|-----------------|
Db|-7-7-7-7-7-7-7-7-|-7-7-7-7-7-7-7-7-|-9-9-9-9-9-9-9-9-|-9-9-9-9-9-9-9-9-|
Ab|-5-5-5-5-5-5-5-5-|-5-5-5-5-5-5-5-5-|-9-9-9-9-9-9-9-9-|-9-9-9-9-9-9-9-9-|
Eb|-----------------|-----------------|-7-7-7-7-7-7-7-7-|-7-7-7-7-7-7-7-7-|

eb|-----------------|-----------------|-----------------|-----------------|
Bb|-----------------|-----------------|-----------------|-----------------|
Gb|-----------------|-----------------|-----------------|-----------------|
Db|-7-7-7-7-7-7-7-7-|-6-6-6-6-6-6-6-6-|-4-4-4-4-4-4-4-4-|-4-4-4-4-4-4-4-4-|
Ab|-7-7-7-7-7-7-7-7-|-7-7-7-7-7-7-7-7-|-4-4-4-4-4-4-4-4-|-4-4-4-4-4-4-4-4-|
Eb|-5-5-5-5-5-5-5-5-|-4-4-4-4-4-4-4-4-|-2-2-2-2-2-2-2-2-|-2-2-2-2-2-2-2-2-|

eb|-----------------|-----------------|-----------------|-----------------|
Bb|-----------------|-----------------|-----------------|-----------------|
Gb|-7-7-7-7-7-7-7-7-|-7-7-7-7-7-7-7-7-|-----------------|-----------------|
Db|-7-7-7-7-7-7-7-7-|-7-7-7-7-7-7-7-7-|-9-9-9-9-9-9-9-9-|-9-9-9-9-9-9-9-9-|
Ab|-5-5-5-5-5-5-5-5-|-5-5-5-5-5-5-5-5-|-9-9-9-9-9-9-9-9-|-9-9-9-9-9-9-9-9-|
Eb|-----------------|-----------------|-7-7-7-7-7-7-7-7-|-7-7-7-7-7-7-7-7-|

eb|-----------------|-----------------|-----------------|-----------------|-----------|
Bb|-----------------|-----------------|-----------------|-----------------|-----------|
Gb|-----------------|-----------------|-----------------|-----------------|-----------|
Db|-7-7-7-7-7-7-7-7-|-6-6-6-6-6-6-6-6-|-4-4-4-4-4-4-4-4-|-4-4-4-4-4-4-4-4-|-7-7--7-6~-|
Ab|-7-7-7-7-7-7-7-7-|-7-7-7-7-7-7-7-7-|-4-4-4-4-4-4-4-4-|-4-4-4-4-4-4-4-4-|-7-7--7-7~-|
Eb|-5-5-5-5-5-5-5-5-|-4-4-4-4-4-4-4-4-|-2-2-2-2-2-2-2-2-|-2-2-2-2-2-2-2-2-|-0-0--0-0~-|


Ending:
(3:30)
eb|-----------------|-----------------|-----------------|-----------------|
Bb|-----------------|-----------------|-----------------|-----------------|
Gb|-----------------|-----------------|-----------------|-----------------|
Db|-7-7-7-7-7-7-7-7-|-9-9-9-9-9-9-9-9-|-6-6-6-6-6-6-6-6-|-7-7-7-7-7-7-7-7-|
Ab|-7-7-7-7-7-7-7-7-|-9-9-9-9-9-9-9-9-|-7-7-7-7-7-7-7-7-|-7-7-7-7-7-7-7-7-|
Eb|-5-5-5-5-5-5-5-5-|-7-7-7-7-7-7-7-7-|-4-4-4-4-4-4-4-4-|-5-5-5-5-5-5-5-5-|

eb|-----------------|-----------------|-----------------|-----------------|
Bb|-----------------|-----------------|-----------------|-----------------|
Gb|-----------------|-----------------|-----------------|-----------------|
Db|-7-7-7-7-7-7-7-7-|-9-9-9-9-9-9-9-9-|-6-6-6-6-6-6-6-6-|-7~--------------|
Ab|-7-7-7-7-7-7-7-7-|-9-9-9-9-9-9-9-9-|-7-7-7-7-7-7-7-7-|-7~--------------|
Eb|-5-5-5-5-5-5-5-5-|-7-7-7-7-7-7-7-7-|-4-4-4-4-4-4-4-4-|-5~--------------|


 * Questions, comments, or requests: email
            
Tabs too difficult? Try these video lessons and learn fast.




comments powered by Disqus
↑ Back to top | Tablatures and chords are parodies/interpretations of the original songs. You may use it for private study, scholarship, research or language learning purposes only