» » »

Taking Back Sunday, Cute Without The E The Real Way Tabs (ver.1)

Artists:  A B C D E F G H I J K L M N O P Q R S T U V W X Y Z # 

Cute Without The E The Real Way Tabs (ver.1)

Taking Back Sunday Tabs
 Rating:
4/5 (4 votes)
Cute Without The E The Real Way lessons Tabs too difficult? Try these video lessons and learn fast
                Intro x2
G---4---4---4---4--------------------------------------------------------------------
D---2---2---4---1--------------------------------------------------------------------
A---4---0---2---2--------------------------------------------------------------------
E------------------------------------------------------------------------------------

Guitar 1 Verse x6 (Palm Muted)
G---6---2---4---x--------------------------------------------------------------------
D---6---2---4---1--------------------------------------------------------------------
A---4---0---2---2--------------------------------------------------------------------
E---x---x---x---x--------------------------------------------------------------------

Guitar 2 Verse x6
E------------------------------------------------------------------------------------
B------------------------------------------------------------------------------------
G---4---4---4---------4---4---4---------4---4---4------------------------------------
D------------------------------------------------------------------------------------
A------------------------------------------------------------------------------------
E------------------------------------------------------------------------------------

Chorus Both Guitars x4
G---6---x---9---x--------------------------------------------------------------------
D---6---9---9---7--------------------------------------------------------------------
A---4---9---7---7--------------------------------------------------------------------
E---x---7---x---5--------------------------------------------------------------------

Repeat the verse and chorus

Interlude

Piano comes in (Play the same chords as in the chorus, one strum per 4 beats to get somewhat the same sound as the piano).

Guitar 2 x4
E-----------4-----------------4---5---4h5p4------------------------------------------
B-------5-----------------5----------------------------------------------------------
G---4-----------------4--------------------------------------------------------------
D------------------------------------------------------------------------------------
A------------------------------------------------------------------------------------
E------------------------------------------------------------------------------------

And all of this…….(Both Guitars)  x4
G---6---x---x------------------------------------------------------------------------
D---6---7---9------------------------------------------------------------------------
A---4---7---9------------------------------------------------------------------------
E---x---5---7------------------------------------------------------------------------

I stay wrecked and jealous for this…..(Both guitars)   x6
G---6---x---x---x--------------------------------------------------------------------
D---6---7---9---x--------------------------------------------------------------------
A---4---7---9---6--------------------------------------------------------------------
E---x---5---7---7--------------------------------------------------------------------

Both guitars end on
G---6---x---x------------------------------------------------------------------------
D---6---7---9~-----------------------------------------------------------------------
A---4---7---9~-----------------------------------------------------------------------
E---x---5---7~-----------------------------------------------------------------------
            
Submit corrections

comments powered by Disqus
↑ Back to top | Taking Back Sunday Tabs for Cute Without The E The Real Way. Lyrics for acoustic guitar and electric guitar. Tablatures and chords are parodies/interpretations of the original songs. You may use it for private study, scholarship, research or language learning purposes only