>
 >
Cute Without The 'e'

Cute Without The 'e' Guitar Tabs

Taking Back Sunday - Cute Without The 'e' chords, tabs, tablatures, lyrics

Guitar lessons | Add/correct | Request | Top 50 tabs Artists:  A B C D E F G H I J K L M N O P Q R S T U V W X Y Z 0-9

Cute Without The 'e' Guitar Tabs – Taking Back Sunday

CD, Sheet music, Poster

Do you like Cute Without The 'e'? Share with your friends now
Bass TabsBass Tabs v2Bass Tabs v3ChordsChords v2TabsTabs v2Tabs v3
-------------------------------------------------------------------------------
        Cute Without The E (Cut From The Team) - Taking Back Sunday
-------------------------------------------------------------------------------

| /  slide up
| \  slide down
| h  hammer-on
| p  pull-off
| ~  vibrato
| +  harmonic
| x  Mute note
| *  Palm Mute

Tuning: Standard

Guitar 1: Eddie Reyes   (Lead)
Guitar 2: Fred Mascherino     (Rhythm)

			Intro:  
			Guitar 1 (No Guitar 2)
			
	(0:00-0:09)		x2
e|--------------------------------|
B|--0---0-------0-----------------|
G|--4---4---4---4-----------------|
D|--2---2---2---2-----------------|
A|--4---0---2---1-----------------|
E|--------------------------------|

			Verse:
			Guitar 1 (Repeat 6 times)
             (0:10-0:38)                      				x6
e|-----------------|-----------------|-----------------|---------------------|
B|-----------------|-----------------|-----------------|---------------------|
G|---------4-4---4-|---------4-4---4-|---------4-4---4-|---------------------|
D|-----2-------2---|-----2-------2---|-----2-------2---|-----1---2-1---1-----|
A|-4-4---4---------|-0-0---0---------|-2-2---2---------|-2-2---2-----2-------|\
E|-----------------|-----------------|-----------------|---------------------| \
PM * * * *     *     * * * *     *     * * * *     *     * * * * * * * *        \
										 \  Verse
			Guitar 2 (Repeat 6 times)   				 /     
		(0:10-0:38)						x6	/
e|---------------------------------------------------------------------------| /
B|---------------------------------------------------------------------------|/
G|--66666666--22222222-------------------------------------------------------|
D|--66666666--22222222--99999999--99999999-----------------------------------|
A|--44444444--00000000--99999999--99999999-----------------------------------|
E|----------------------77777777--77777777-----------------------------------|
PM  ********  ********  ********  ********

			Chorus:
			Guitars 1 and 2 (Repeat 4 times)
                (0:38-0:59)
e|---------------------------------------------------------------------------|
B|---------------------------------------------------------------------------|
G|--66666666--44444444--99999999--22222222-----------------------------------|
D|--66666666--44444444--99999999--22222222-----------------------------------|
A|--44444444--22222222--77777777--00000000-----------------------------------|
E|---------------------------------------------------------------------------|


			Verse:
			Guitar 1 (Repeat 6 times)
                (0:59-1:27)   	                			x6
e|-----------------|-----------------|-----------------|---------------------|
B|-----------------|-----------------|-----------------|---------------------|
G|---------4-4---4-|---------4-4---4-|---------4-4---4-|---------------------|
D|-----2-------2---|-----2-------2---|-----2-------2---|-----1---2-1---1-----|
A|-4-4---4---------|-0-0---0---------|-2-2---2---------|-2-2---2-----2-------|\
E|-----------------|-----------------|-----------------|---------------------| \
PM * * * *     *     * * * *     *     * * * *     *     * * * * * * * *        \
										 \  Verse
			Guitar 2 (Repeat 6 times)   				 /     
		(0:59-1:27)						x6	/
e|---------------------------------------------------------------------------| /
B|---------------------------------------------------------------------------|/
G|--66666666--22222222-------------------------------------------------------|
D|--66666666--22222222--99999999--99999999-----------------------------------|
A|--44444444--00000000--99999999--99999999-----------------------------------|
E|----------------------77777777--77777777-----------------------------------|
PM  ********  ********  ********  ********

			Chorus:
			Guitars 1 and 2 (Repeat 4 times)
                (1:27-1:48)
e|---------------------------------------------------------------------------|
B|---------------------------------------------------------------------------|
G|--66666666--44444444--99999999--22222222-----------------------------------|
D|--66666666--44444444--99999999--22222222-----------------------------------|
A|--44444444--22222222--77777777--00000000-----------------------------------|
E|---------------------------------------------------------------------------|

			Bridge:
			Guitar 1 (2 Ways to do this)
           **(Listen to the song to here how many times you will repeat this)**
	(1:59-2:26)
e|----------------------------|                         e|----4---4-5-4h5p4-----------|
B|---9---9-10-9h10p9----------|<---I find this way to   B|---5---5--------------------|
G|--9---9---------------------|    sound better but you G|--4---4---------------------|
D|-9---9----------------------|    you may find this--->D|----------------------------|
A|----------------------------|    way better           A|----------------------------|
E|----------------------------|                         E|----------------------------|

			Bridge:
                        Guitar 2 (This parts really quiet)
     x1   (1:53-2:38)         x9
e|-----|-------------------------|
B|-----|-------------------------|
G|--9--|--6--4--9--2-------------|
D|--9--|--6--4--9--2-------------|
A|--7--|--4--2--7--0-------------|
E|-----|-------------------------|

			Bridge cont:
			Guitar 1
    (2:40-2:47)
e|------------------|  (Repeated in song, just listen)
B|------------------|
G|------------------|
D|--2-1---2-1-------|
A|-----2-----2------|
E|------------------|

			Bridge cont:
			Guitar 2
(2:39-2:49)	x3
e|----------------|
B|----------------|
G|--6--2--4-------|
D|--6--2--4-------|
A|--4--0--2-------|
E|----------------|

			Outro:
			Guitar 1
	(2:49-3:20)	x4	    x1
e|----------------------------|-------|
B|--5-4-5-4-5-4-5-4-----------|--10-4-|
G|----------------------------|-------|
D|----------------------------|-------|
A|----------------------------|-------|
E|----------------------------|-------|

			Outro:
			Guitar 2
	(2:50-3:20 i think)		x6
e|--------------------------------------------------------------------------|
B|--------------------------------------------------------------------------|
G|--66666666--22222222------------------------------------------------------|
D|--66666666--22222222--99999999--99999999----------------------------------|
A|--44444444--00000000--99999999--99999999----------------------------------|
E|----------------------77777777--77777777----------------------------------|
PM  ********  ********  ********  ********

			Outro cont.
			Guitar 2
			End With This
     (3:21)
e|----------------------------|
B|----------------------------|
G|--6--2--4~------------------|
D|--6--2--4~------------------|
A|--4--0--2~------------------|
E|----------------------------|


Your lipstick, his collar.. don't bother angel
I know exactly what goes on

When everything you'll get is
Everything that you've wanted, princess
(well which would you prefer)
My finger on the trigger, or
(me face down, down across your floor)
Me face down, down across your floor
(me face down, down across your floor)
Well just so long as this thing's loaded

And will you tell all your friends
You've got your gun to my head
This all was only wishful thinkin,
This all was only wishful thinkin
And will you tell all your friends
You've got your gun to my head
This all was only wishful thinkin,
This all was only wishful thinkin
Let's go...

Don't bother trying to explain angel
I know exactly what goes on when you're on and
How about I'm outside of your window
(how about I'm outside of your window)
Watchin him keep the details covered
You're such a sucker (you're such a sucker)
For a sweet talker, yeah

And will you tell all your friends
You've got your gun to my head
This all was only wishful thinkin,
This all was only wishful thinkin
(the only thing that I regret is that i, I never let you hold me back)
And will you tell all your friends
You've got your gun to my head
This all was only wishful thinkin,
This all was only wishful thinkin

Hoping for the best just hoping nothing happens
A thousand clever lines unread on clever napkins
I wil never ask if you don't ever tell me
I know you well enough to know you never loved me
Hoping for the best just hoping nothing happens
A thousand clever lines unread on clever napkins
I will never ask if you don't ever tell me
I know you well enough to know you never loved me
Hoping for the best just hoping nothing happens
A thousand clever lines unread on clever napkins
I will never ask if you don't ever tell me
I know you well enough to know...

Why can't I feel anything
Why can't I feel anything

And all of this was all your fault
And all of this

(I stay jealous)
I stay wrecked and jealous for this,
For this simple reason
I just need to keep you in mind
As something larger than life
(she'll destroy us all before she's through
And find a way to blame somebody else)
I stay wrecked and jealous for this,
For this simple reason
I just need to keep you in mind
As something larger than life
(she'll destroy us all before she's through
And find a way to blame somebody else)
I stay wrecked and jealous for this,
For this simple reason
I just need to keep you in mind
As something larger than life!
============================================================================





Comments


Popular Taking Back Sunday tabs & chords
Bonus Mosh Part 2 Bass Tabs
Swing Bass Tabs
Makedamnsure 2 Chords
Ghost Man On Third 3 Tabs
I Am Fred Astaire Tabs
Liar It Takes One To Know One Tabs
New American Classic 1 Tabs
New American Classic 2 Tabs
There's No "I" In Team Tabs
There's No "I" In Team 2 Tabs


Song lyrics



↑ Back to top | Tablatures and chords are parodies/interpretations of the original songs. You may use it for private study, scholarship, research or language learning purposes only
© 2014 AZChords.com Contact us | Privacy policy | DMCA | Add/correct tabs | Request tabs | Top 50 tabs