>
 >
Brooklyn (If You See Something, Say Something)

Brooklyn (If You See Something, Say Something) Guitar Tabs

Taking Back Sunday - Brooklyn (If You See Something, Say Something) chords, tabs, tablatures, lyrics

Guitar lessons | Add/correct | Request | Top 50 tabs Artists:  A B C D E F G H I J K L M N O P Q R S T U V W X Y Z 0-9

Brooklyn (If You See Something, Say Something) Guitar Tabs – Taking Back Sunday

CD, Sheet music, Poster

Do you like Brooklyn (If You See Something, Say Something)? Share with your friends now
Bass TabsTabs

Tuning: 1/2 Step Down

h: Hammer-On
p: Pull-Off
~: Let Ring
\: Slide
x: Mute
b: Bend

(): Things I incorperate into my version of the song - but not needed.

*****Guitar One*****
|-------|
|-------|
|-7-----|
|-0-----|
|-------|
|-------|
(Let ring, you'll get some feedback)

Intro:
|-------------------------------------|x3
|-7-7-7-8-8-8-10-10-10-7-7-7-7-5-5-5--|
|-7-7-7-7-7-7--7--7--7-7-7-7-7-7-7-7--|
|-------------------------------------|
|-------------------------------------|
|-------------------------------------|

Verse:
|-----------------------------------|
|--7---7---7-8-7-8-7---7---7-5-7-5--|
|-----------------------------------|
|-----------------------------------|
|-----------------------------------|
|-----------------------------------|
Clean, or use little distortion.


Pre Chorus:

Listen to the song for durations.
|-10-10-10-10-10-10-10--9--9--9--9-12-12-12-12-12--|
|-10-10-10-10-10-10-10-10-10-10-10-10-10-10-10-10--|
|--------------------------------------------------|
|--------------------------------------------------|
|--------------------------------------------------|
|--------------------------------------------------|

|-10-(10)--(9)-(10)--(9)-10-(10)--(9)-(10)--(9)-10----|
|-10-(10)-(10)-(10)-(10)-10-(10)-(10)-(10)-(10)-10----|
|-----------------------------------------------------|
|-----------------------------------------------------|
|-----------------------------------------------------|
|-----------------------------------------------------|
use effects/or clean. Play with this idea, or listen to the song for strumming.
                  
|-10-10-10-10-10-10--x-14b-|
|-10-10-10-10-10-10--x-----|
|--------------------------|
|--------------------------|
|--------------------------|
|--------------------------|

Chorus:                                3x
|---------------------------------------|
|-7---7-----7---8-10----10-----10-8-7---|
|---7---7-----7-------7------7----------|
|---------------------------------------|__
|---------------------------------------|  |
|---------------------------------------|  |
                                           |
|-----------------------------------|      |
|-8---8-----8------8--8---8-8-8-8-8-|      |
|---7---7-----7----7--7---7-7-7-7-7-|      |x2
|---------------x-------------------|      |
|---------------x-------------------|______|
|---------------x-------------------|

**Verse
**PreChorus
**Chorus

After...
|---------------------------------|
|---------------------------------|
|-11-(x16)--14-(x16)--15-(x32)----|
|--x---------x---------x----------|
|--9--------12--------13----------|
|---------------------------------|

(continued)
|-------------------------|-------------------------|
|-------------------------|-------------------------|
|-15-15-15-15-15-15-15-15-|-17-17-17-17-17-17-17-17-|
|--x--x--x--x--x--x--x--x-|--x--x--x--x--x--x--x--x-|
|-13-13-13-13-13-13-13-13-|-15-15-15-15-15-15-15-15-|
|-------------------------|-------------------------|


Breakdown:
|------------10p9-------------------------10p9-------------------|
|-----------------10---------------------------10----------------|
|-19\----------------9--------------(14)----------9--------------|
|--x-------------------12-11~~-(12)-----------------12-11~~-(12)-|
|-17-------------------------------------------------------------|
|----------------------------------------------------------------|

When the feedback cuts in I usually play something like this...
|-----------------|
|-3p2---3p2---3p2-|
|-----2-----2-----|
|-----------------|
|-----------------|
|-----------------|

Eventually the feedback goes into this...
|-10-10-10-10-10-10-9-9-|-9-10-10-10-10--|
|-----------------------|----------------|
|-----------------------|----------------|
|-----------------------|----------------|
|-----------------------|----------------|
|-----------------------|----------------|

(continued)
|-22-22-22-22-22-22-22-22-|-22-21-21-21-22-22\-|
|-------------------------|--------------------|
|-------------------------|--------------------|
|-------------------------|--------------------|
|-------------------------|--------------------|
|-------------------------|--------------------|

**Chorus

Second time around switch to       3x
|-----------------------------------|-----------------------------|
|--10------------7~~----------------|--------------------7-----8--|
|--------------7------------9-7-9-7-|-6----7-------9--------------|
|-----------------------------------|-----------------------------|
|-----------------------------------|-----------------------------|
|-----------------------------------|-----------------------------|

**Intro

End with...
|--------------------------------------|
|-7-7-7-7-7-7-7-7-5-5-5-5-5-5-5-5--7~~-|
|-7-7-7-7-7-7-7-7-7-7-7-7-7-7-7-7--7~~-|
|----------------------------------0~~-|
|--------------------------------------|
|--------------------------------------|



*****Guitar 2*****

Intro:
|-------------------------------------|
|-------------------------------------|
|--------------7--7--7-4-4-4-4-4-4-4--|
|-5-5-5-5-5-5--7--7--7-4-4-4-4-4-4-4--|
|-5-5-5-5-5-5--5--5--5-2-2-2-2-2-2-2--|
|-3-3-3-3-3-3-------------------------|


Verse:
|-----------------------------------|
|-10\7-------------7\5--------------|
|-----------------------------------|
|-----------------------------------|
|-----------------------------------|
|-----------------------------------|

(Continued)
|----------------------------------|
|-10-7-------------7h8-7h8-7h8-7h8-|
|----------------------------------|
|----------------------------------|
|----------------------------------|
|----------------------------------|
(Clean or use an effects pedal)


Pre-Chorus
|--------------------------------------------------|
|-10-10-10-10-10-10-10--------------7--7--7--7--7--|
|--x--x--x--x--x--x--x--7--7--7--7--x--x--x--x--x--|
|-----------------------0--0--0--0-----------------|
|--------------------------------------------------|
|--------------------------------------------------|

(continued)
For this, listen to the song for durations, it's easy to pick up.
|-----------------------------------------------------|
|-10--10--------10-------10--10--------10-------10-10-|
|--x---x---------x--------x---x---------x--------x--x-|
|-----------------------------------------------------|
|-----------------------------------------------------|
|-----------------------------------------------------|

(continued)
|--------------------------------------------------|
|-10-10-10-10-10-10-10--------------7--7--7--7--7--|
|--x--x--x--x--x--x--x--7--7--7--7--x--x--x--x--x--|
|-----------------------0--0--0--0-----------------|
|--------------------------------------------------|
|--------------------------------------------------|

|--------------------------|
|-10-10-10-10-10-10-10-----|
|-----------------------7--|
|--------------------------|
|--------------------------|
|--------------------------|


Chorus:                                3x
|---------------------------------------|
|---------------------------------------|
|---------------------------------------|___
|-5---5---5-5-5-5--9--9----9-9--9-9-9-9-|   |
|-5---5---5-5-5-5--9--9----9-9--9-9-9-9-|   |
|-3---3---3-3-3-3--7--7----7-7--7-7-7-7-|   |
                                            |
|-----------------------------------|       |
|-----------------------------------|       |
|-----------------------------------|       |x2
|-7---7---7-7-7-x--7--7---7-7-7-7-7-|       |
|-7---7---7-7-7-x--7--7---7-7-7-7-7-|       |
|-5---5---5-5-5-x--5--5---5-5-5-5-5-|_______|


**Verse
**Prechorus
**Chorus


Afterward...
|----------------------------|
|----------------------------|
|--5-(x16)-------------------|
|--5--------7-(x16)--8-(x48)-|
|--3--------7--------8-------|
|-----------5--------6-------|

|---------------------------------------|x4
|---------------------------------------|
|---------------7-7-7--4-4--4-4--4--4-4-|
|--5--5-5-5-5-5-7-7-7--4-4--4-4--4--4-4-|
|--5--5-5-5-5-5-5-5-5--2-2--2-2--2--2-2-|
|--3--3-3-3-3-3-------------------------|

|---------------|
|---------------|
|---------------|
|---5---5-5-5-5-|
|---5---5-5-5-5-|
|---3---3-3-3-3-|


Chorus
Intro

End with...
|-----------------------------------|
|-----------------------------------|
|-----------------------------------|
|-7-7-7-7-7-7-7-7-7-7-7-7-7-7-7-7-5~|
|-7-7-7-7-7-7-7-7-7-7-7-7-7-7-7-7-5~|
|-5-5-5-5-5-5-5-5-5-5-5-5-5-5-5-5-3~|





Comments


Popular Taking Back Sunday tabs & chords
Everything Must Go Bass Tabs
Killed The Cat Bass Tabs
Liar It Takes One To Know One 2 Bass Tabs
Swing 2 Bass Tabs
A Decade Under The Influence Chords
Capital M-e Intro Tabs
Liar It Takes One To Know One 2 Tabs
New American Classic 2 Tabs
Number Five With A Bullet 2 Tabs
Whats It Feel Like To Be A Ghost 1 Tabs


Song lyrics



↑ Back to top | Tablatures and chords are parodies/interpretations of the original songs. You may use it for private study, scholarship, research or language learning purposes only
© 2014 AZChords.com Contact us | Privacy policy | DMCA | Add/correct tabs | Request tabs | Top 50 tabs