» » »

Taking Back Sunday, Bike Scene Tabs (ver.2)

Artists:  A B C D E F G H I J K L M N O P Q R S T U V W X Y Z # 

Bike Scene Tabs (ver.2)

Taking Back Sunday Tabs
 Rating:
3.8/5 (5 votes)
Bike Scene lessons Tabs too difficult? Try these video lessons and learn fast
                TAKING BACK SUNDAY
TELL ALL YOUR FRIENDS
BIKE SCENE

NORMAL TUNING

INTRO (BOTH GUITARS)

|--------------------------------------------------------|
|--------------------------------------------------------|
|--5-5-5-5-5--5-5-5-5-5/12-12-12-12-12--12-12-12-12-12\--|
|--X-X-X-X-X--X-X-X-X-X--X--X--X--X--X---X--X--X--X--X---|
|--3-3-3-3-3--3-3-3-3-3/10-10-10-10-10--10-10-10-10-10\--|
|--------------------------------------------------------|

VERSE

GUITAR 1
|--------------------------------------------|
|--------------------------------------------|
|----5-4----5-4----5-4----5-4----5-4----5-4--|
|---5------5------5------5------5------5-----|
|--3------------3------3-------0-------------|
|--------3---------------------------3-------|

PRE-CHORUS/CHORUS (BOTH GUITARS)

|------------------------------------------------------------------------|
|------------------------------------------------------------------------|
|--5-5-5-5-5-7-7-7-7-7-9-9-9-9-9-10-10-10-10-10--------------------------|
|--X-X-X-X-X-X-X-X-X-X-X-X-X-X-X--X--X--X--X--X-----------------X-X-X-X--|
|--3-3-3-3-3-5-5-5-5-5-7-7-7-7-7--8--8--8--8--8--7----5----3----X-X-X-X--|
|------------------------------------------------5----3----1----X-X-X-X--|x2

VERSE 2 (BOTH GUITARS)
|-----------------------------------------------------------------------
|-----------------------------------------------------------------------
|--5-5-5-5-5-X-X-X-5-5-5-5-5/12-12-12-12-12-X-X-X-12-12-12-12-12\10\9-9-
|--X-X-X-X-X-X-X-X-X-X-X-X-X--X--X--X--X--X-X-X-X--X--X--X--X--X--X-X-X-
|--3-3-3-3-3-X-X-X-3-3-3-3-3/10-10-10-10-10-X-X-X-10-10-10-10-10\-8\7-7-
|-----------------------------------------------------------------------

----------------------------------------------------|
----------------------------------------------------|
--9-9-9-X-X-X-9-9-9-9-9/10-10/12-12-12\10\9/10\9\5--|
--X-X-X-X-X-X-X-X-X-X-X--X--X--X--X--X--X-X--X-X-X--|
--7-7-7-X-X-X-7-7-7-7-7/-8--8/10-10-10\-8\7/-8\7\3--|
----------------------------------------------------|x2

CHORUS 2 - SAME AS BEFORE BUT END ON C octave

BRIDGE
|-------------------------------------|
|----------------------------------5--|
|----5-4---5p4h5p4---5-4---5p4h5p4----|
|---5-----5---------5-----5-----------|
|--3-----3---------0-----0------------|
|-------------------------------------|xheaps

"you've got me right where you want me" bit: (not exact strumming)
|-------------------------------------------------------------------------|
|-------------------------------------------------------------------------|
|-------------------------------------------------------------------------|
|--5-5-5-5-5-5-5-5-5------------------------------------------------------|
|--3-3-3-3-3-3-3-3-3-7-7-7-7-7-7-7-7-7-3-3-3-3-3-3-3-3-5-5-5-5-5-5-5-5-5--|
|--------------------5-5-5-5-5-5-5-5-5-1-1-1-1-1-1-1-1-3-3-3-3-3-3-3-3-3--|x2

end chord is just C5 played a couple of times
            
Submit corrections

comments powered by Disqus
↑ Back to top | Taking Back Sunday Tabs for Bike Scene. Lyrics for acoustic guitar and electric guitar. Tablatures and chords are parodies/interpretations of the original songs. You may use it for private study, scholarship, research or language learning purposes only