» » »

Taking Back Sunday, Bike Scene Bass tabs (ver.1)

Artists:  A B C D E F G H I J K L M N O P Q R S T U V W X Y Z # 

Bike Scene Bass tabs (ver.1)

Taking Back Sunday Tabs
Rating:
3/5 (3 votes)
Bike Scene lessons Tabs too difficult? Try these video lessons and learn fast
                intro/verse
g|----------------------------------------------------------|
d|----------------------------------------------------------|
a|33333---33333/101010101088--------------------------------|
e|--------------------------5-5-5-5-5-5-5-5-3-3-3-3-3-3-3-3-|

g|------------------------------------------------------------------------|
d|------------------------------------------------------------------------|
a|3-3-3-3-3-3-3-3-10-10-10-10-10-10-10-10---------------------------------|
e|----------------------------------------5-5-5-5-5-5-5-5-3-3-3-3-3-3-3-3-|

chorus x2
g|----------------------------------------------------------------|
d|----------------------------------------------------------------|
a|3-3-3-3-5-5-5-5-7-7-7-7-8-8-7-7---------------------------------|
e|--------------------------------5-5-5-5-3-3-3-3-1-1-1-1-1-1-1-1-|

intro/verse
g|----------------------------------------------------------|
d|----------------------------------------------------------|
a|33333---33333/101010101088--------------------------------|
e|--------------------------5-5-5-5-5-5-5-5-3-3-3-3-3-3-3-3-|

g|------------------------------------------------------------------------|
d|------------------------------------------------------------------------|
a|3-3-3-3-3-3-3-3-10-10-10-10-10-10-10-10---------------------------------|
e|----------------------------------------5-5-5-5-5-5-5-5-3-3-3-3-3-3-3-3-|

chorus x2
g|----------------------------------------------------------------|
d|----------------------------------------------------------------|
a|3-3-3-3-5-5-5-5-7-7-7-7-8-8-7-7---------------------------------|
e|--------------------------------5-5-5-5-3-3-3-3-1-1-1-1-1-1-1-1-|

rest(guitar solo w/ john singing)

break(come in when girl singing comes in)
g|----------------------------------------|
d|----------------------------------------|
a|8-88-8-88-5-55-5-55-8-88-8-88-5-55-5-55-|
e|----------------------------------------|

g|----------------------------------------|
d|----------------------------------------|
a|3-33-3-33-0-00-0-00-3-33-3-33-0-00-0-00-|
e|----------------------------------------|

g|----------------------------------------|
d|----------------------------------------|
a|8-88-8-88-5-55-5-55-8-88-8-88-5-55-5-55-|
e|----------------------------------------|

ending x2
g|----------------------------------------------------------------|
d|----------------------------------------------------------------|
a|3-3-3-3-3-3-3-3-3-3-3-3-3-3-3-3---------------------------------|
e|--------------------------------5-5-5-5-5-5-5-5-5-5-5-5-5-5-5-5-|

g|----------------------------------------------------------------|
d|----------------------------------------------------------------|
a|--------------------------------5-5-5-5-5-5-5-5-5-5-5-5-5-5-5-5-|
e|1-1-1-1-1-1-1-1-1-1-1-1-1-1-1-1---------------------------------|

outro
g|------------------------------------------|
d|------------------------------------------|
a|3-3-3-3-333-3-3-3-3-333-3-3-3-3-333-3-3-3-|
e|------------------------------------------|
            

comments powered by Disqus
↑ Back to top | Taking Back Sunday Bass for Bike Scene. Lyrics for acoustic guitar and electric guitar. Tablatures and chords are parodies/interpretations of the original songs. You may use it for private study, scholarship, research or language learning purposes only