>
 >
Best Places To Be A Mom 1

Best Places To Be A Mom 1 Guitar Tabs

Taking Back Sunday - Best Places To Be A Mom 1 chords, tabs, tablatures, lyrics

Guitar lessons | Add/correct | Request | Top 50 tabs Artists:  A B C D E F G H I J K L M N O P Q R S T U V W X Y Z 0-9

Best Places To Be A Mom 1 Guitar Tabs – Taking Back Sunday

CD, Sheet music, Poster

Do you like Best Places To Be A Mom 1? Share with your friends now
ChordsTabsTabs v2Ukulele
Band: Taking Back Sunday

Hey this is a tab for a song ' Best Places To Be A Mom ' by TBS!
This is one of the new songs release from the reunited Taking Back Sunday lineup. 
Enjoy... I tabbed based on the leaked demo that just came out!

Tuning: Half Step Down



Intro/Verse
Guitar 1
e|---0-0-0-0-0-0-0-0--|--0-0-0-0-0-0-0-0-0000-|
b|--5-5-5-5-4-4-4-4---|-5-5-5-5-4-4-4-4--7777-|
g|--------------------|-----------------------|
d|--------------------|-----------------------|
a|--------------------|-----------------------|
e|--------------------|-----------------------|

John Nolan sometimes plays it in videos like this:
e|------------------|-------------------------------|
b|---0-0-0-0-0-0-0-0|--0-0-0-0-0-0-0-0--0--0--0--0--|
g|--9-9-9-9-8-8-8-8-|-9-9-9-9-8-8-8-8-11-11-11-11---|
d|------------------|-------------------------------|
a|------------------|-------------------------------|
e|------------------|-------------------------------|

Gutiar 2
e|--0~---------0~-0~--------|
b|--0~---------0~-0~-~------|
g|--9~---------9~-9~-9~-9~--|
d|--9~---------9~-9~-9~-9~--|
a|--7~---------7~-6~-7~-6~--|
e|--0~---------0~-----------|
"Though a lot about the morning.."

Pre Chorus
Guitar 1
e|--12-11-----12-11-14~--|
b|-------9-12------------|
g|-----------------------|
d|-----------------------|
a|-----------------------|
e|-----------------------|

Guitar 2
*next eight A chords could 
 possibly be B (x24400) Chords
e|--0-000-0000*0*000-0000---------|
b|--0-000-0000-0-000-0000---------|
g|--2-222-2222-2-222-2222---------|
d|--2-222-2222-2-222-2222---------|
a|--0-000-0000-0-000-0000---------|
e|--------------------------------|

Chorus
Guitar 1 
(doesnt seem to be a real lead part so try this)
*these chords are also in the verse
e|-*0--*0---0---0---0--|
b|--0---0---0---0---0--|
g|--1---1---6---4---2--|
d|--2---1---6---4---2--|
a|--2---2---4---2---0--|
e|-*0--*0--------------|

Guitar 2
e|--0---0---0---0---0--|
b|--0---0---0---0---0--|
g|--9---9---6---4---2--|
d|--9---9---6---4---2--|
a|--7---6---4---2---0--|
e|--0---0--------------|
"Am I just like..."

Verse

Guitar 2 Palm Mutes the chords this time

Breakdown         
Both Guitars 
                  end on
e|----------------|-----|
b|----------------|-----|
g|--2--4-----2----|-----|
d|--2--4--6--2--4-|--2~-|
a|--0--2--6--0--4-|--2~-|
e|--------4-----2-|--0~-|

Bridge
Guitar 1
e|-----12----12----12----12----11----11----14----14--|
b|-1212--1212--1212--1212--1212--1212--1212--1212----|
g|---------------------------------------------------|
d|---------------------------------------------------|
a|---------------------------------------------------|
e|---------------------------------------------------|

Guitar 2
e|--0---0---0---0---0--000000000000--|
b|-5-5-4-4-5-5-4-4-5-5-555544447777--|
g|-----------------------------------|
d|-----------------------------------|
a|-----------------------------------|
e|-----------------------------------|

Chorus 

Breakdown as Outro





Comments


Popular Taking Back Sunday tabs & chords
12 Days Of Christmas Chords
Cut Me Up Jenny Chords
Divine Intervention Chords
Youre So Last Summer Chords
Cute Without The "E" Cut From The Tabs
Divine Intervention 1 Tabs
Divine Intervention 6 Tabs
I Follow The Format Tabs
This Photograph Is Proof Tabs
Cute Without The E Ukulele


Song lyrics



↑ Back to top | Tablatures and chords are parodies/interpretations of the original songs. You may use it for private study, scholarship, research or language learning purposes only
© 2014 AZChords.com Contact us | Privacy policy | DMCA | Add/correct tabs | Request tabs | Top 50 tabs