>
 >
Best Places To Be A Mom

Best Places To Be A Mom Guitar Tabs

Taking Back Sunday - Best Places To Be A Mom chords, tabs, tablatures, lyrics

Guitar lessons | Add/correct | Request | Top 50 tabs Artists:  A B C D E F G H I J K L M N O P Q R S T U V W X Y Z 0-9

Best Places To Be A Mom Guitar Tabs – Taking Back Sunday

CD, Sheet music, Poster

Do you like Best Places To Be A Mom? Share with your friends now
ChordsTabsTabs v2Ukulele
Taking Back Sunday
Taking Back Sunday

Tuning: Half Step Down

Legend:

~ - Let Ring
. - Palm Mute
\ - Slide Upwards

VERSE

        Rhythm

                eb|--------------------|
                Bb|--------------------|
                Gb|--9~----------------|        2x
                Db|--9~----------------|
                Ab|--7~----------------|
                Eb|--------------------|
                

        Lead    

                eb|---0-0-0-0-0-0-0-0-0-0-0-0-0-0-0-0--|
                Bb|--5-5-5-5-4-4-4-4-5-5-5-5-4-4-4-4---|
                Gb|------------------------------------|        2x
                Db|------------------------------------|
                Ab|------------------------------------|
                Eb|------------------------------------|

REFRAIN

        Rhythm

                eb|--------------------|
                Bb|--------------------|
                Gb|--------------------|
                Db|--7-7-7-7-7-7-7-7---|
                Ab|--7-7-7-7-7-7-7-7---|
                Eb|--5-5-5-5-5-5-5-5---|
                     . . . . . . . .

        Lead
                
                eb|---0-0-0-0-0-0-0-0--0~-|
                Bb|--5-5-5-5-5-5-5-5---5~-|
                Gb|-----------------------|
                Db|-----------------------|
                Ab|-----------------------|
                Eb|-----------------------|

CHORUS

        Rhythm

                eb|------------------------------------|
                Bb|------------------------------------|
                Gb|--9------9------6-----4-----2-------|        2x
                Db|--9-x16--9-x16--6-x8--4-x8--2-x16---|
                Ab|--7------6------4-----2-----0-------|
                Eb|------------------------------------|


        Lead

                eb|--0------0------0-----0-----0-------|        2x
                Bb|--0-x16--0-x16--0-x8--0-x8--0-x16---|
                Gb|--9------9------6-----4-----2-------|
                Db|------------------------------------|
                Ab|------------------------------------|
                Eb|------------------------------------|

INTERLUDE

        Rhythm

                eb|----------------------------------------|
                Bb|---IDLE---------------------------------|
                Gb|----------------------------------------|
                Db|----------------------------------------|
                Ab|----------------------------------------|
                Eb|----------------------------------------|

                eb|---0-0-0-0-0-0-0-0-----0-0-0-0-0-0-0-0--|
                Bb|--5-5-5-5-5-5-5-5-----4-4-4-4-4-4-4-4---|
                Gb|----------------------------------------|
                Db|----------------------------------------|
                Ab|----------------------------------------|
                Eb|----------------------------------------|


        Lead

                eb|---0-0-0-0-0-0-0-0-----0-0-0-0-0-0-0-0--|
                Bb|--5-5-5-5-5-5-5-5-----4-4-4-4-4-4-4-4---|
                Gb|----------------------------------------|
                Db|----------------------------------------|
                Ab|----------------------------------------|
                Eb|----------------------------------------|
        
                eb|---0-0-0-0-0-0-0-0-----0-0-0-0--0--0--0--0--|
                Bb|--9-9-9-9-9-9-9-9-----7-7-7-7-12-12-12-12---|
                Gb|--------------------------------------------|
                Db|--------------------------------------------|
                Ab|--------------------------------------------|
                Eb|--------------------------------------------|

VERSE

        Rhythm

                eb|-------------------|
                Bb|-------------------|
                Gb|--9-------9--------|         2x
                Db|--9-x16---9--x16---|
                Ab|--7-------6--------|
                Eb|-------------------|
                     .       .
                     
        Lead

                eb|---0-0-0-0-0-0-0-0-----0-0-0-0-0-0-0-0--|
                Bb|--5-5-5-5-5-5-5-5-----4-4-4-4-4-4-4-4---|
                Gb|----------------------------------------|      2x
                Db|----------------------------------------|
                Ab|----------------------------------------|
                Eb|----------------------------------------|

REFRAIN

        Rhythm

                eb|-----------------|
                Bb|-----------------|
                Gb|-----------------|
                Db|--7~-------------|
                Ab|--7~-------------|
                Eb|--5~-------------|

        Lead (w/ Effects)

                eb|--0-0-0-0-0-0-0-0~--|
                Bb|--5-5-5-5-5-5-5-5~--|
                Gb|--------------------|
                Db|--------------------|
                Ab|--------------------|
                Eb|--------------------|

CHORUS

        Rhythm

                eb|------------------------------------|
                Bb|------------------------------------|
                Gb|--9------9------6-----4-----2-------|        3x
                Db|--9-x16--9-x16--6-x8--4-x8--2-x16---|
                Ab|--7------6------4-----2-----0-------|
                Eb|------------------------------------|

                eb|-------------------------------|
                Bb|-------------------------------|
                Gb|--9------9------6-----4--------|
                Db|--9-x16--9-x16--6-x8--4-x8-----|
                Ab|--7------6------4-----2--------|
                Eb|-------------------------------|

        Lead

                eb|--0------0------0-----0-----0-------|
                Bb|--0-x16--0-x16--0-x8--0-x8--0-x16---|
                Gb|--9------9------6-----4-----2-------|        3x
                Db|------------------------------------|
                Ab|------------------------------------|
                Eb|------------------------------------|

                eb|--0------0------0-----0----------|
                Bb|--0-x16--0-x16--0-x8--0-x8-------|
                Gb|--9------9------6-----4----------|
                Db|---------------------------------|
                Ab|---------------------------------|
                Eb|---------------------------------|

ADLIB

        Both Guitars

                eb|----------------|
                Bb|----------------|
                Gb|----------------|    3x
                Db|--7-9-6-7-4~----|
                Ab|--7-9-6-7-4~----|
                Eb|--5-7-4-5-2~----|

        Rhythm

                eb|--------|
                Bb|--------|
                Gb|--------|    
                Db|--2~----|
                Ab|--2~----|
                Eb|--0~----|

        Lead

                eb|-------|
                Bb|-------|
                Gb|-------|     
                Db|--7----|
                Ab|--7----|
                Eb|--5----|

BREAKDOWN

        Rhythm

                eb|----------------------------------------|
                Bb|---IDLE---------------------------------|
                Gb|----------------------------------------|    4 counts
                Db|----------------------------------------|
                Ab|----------------------------------------|
                Eb|----------------------------------------|

                eb|--0-0-0-0-0-0-0-0---0-0-0-0-0-0-0-0---|
                Bb|---5-5-5-5-5-5-5-5---4-4-4-4-4-4-4-4--|
                Gb|--------------------------------------|      8x
                Db|--------------------------------------|
                Ab|--------------------------------------|
                Eb|--------------------------------------|

        Lead    (Slightly Increasing Volume)
        
                eb|-------12-------12-------12-------12--|\
                Bb|-12-12----12-12----12-12----12-12-----| \
                Gb|--------------------------------------|  \
                Db|--------------------------------------|   \
                Ab|--------------------------------------|    \
                Eb|--------------------------------------|     \
                                              16x
                eb|-------11-------11-------14-------14--|     /
                Bb|-12-12----12-12----12-12----12-12-----|    /
                Gb|--------------------------------------|   /  
                Db|--------------------------------------|  /
                Ab|--------------------------------------| /
                Eb|--------------------------------------|/

LAST CHORUS

        Rhythm

                eb|------------------------------------|
                Bb|------------------------------------|
                Gb|--9------9------6-----4-----2-------|        3x
                Db|--9-x16--9-x16--6-x8--4-x8--2-x16---|
                Ab|--7------6------4-----2-----0-------|
                Eb|------------------------------------|

                eb|-------------------------------|
                Bb|-------------------------------|
                Gb|--9------9------6-----4--------|
                Db|--9-x16--9-x16--6-x8--4-x8-----|
                Ab|--7------6------4-----2--------|
                Eb|-------------------------------|

        Lead

                eb|--0------0------0-----0-----0-------|
                Bb|--0-x16--0-x16--0-x8--0-x8--0-x16---|
                Gb|--9------9------6-----4-----2-------|        2x
                Db|------------------------------------|
                Ab|------------------------------------|
                Eb|------------------------------------|

                eb|-17-16---------17-16------------------17-16--------15b-|
                Bb|-------14-17~--------14-17~--17-14-17-------17-12------|
                Gb|-------------------------------------------------------|     
                Db|-------------------------------------------------------|
                Ab|-------------------------------------------------------|
                Eb|-------------------------------------------------------|

                eb|-17-16---------17-16------------------17-16----19~---|
                Bb|-------14-17~--------14-17~--17-14-17-------17-------|
                Gb|-----------------------------------------------------|       
                Db|-----------------------------------------------------|
                Ab|-----------------------------------------------------|
                Eb|-----------------------------------------------------|

OUTRO

        Rhythm

                eb|-----------------|
                Bb|-----------------|
                Gb|-----------------|   
                Db|--7-9-6-7-4--2~--|
                Ab|--7-9-6-7-4--2~--|
                Eb|--5-7-4-5-2--0~--|

        Lead                

                eb|-------------19\-|
                Bb|-----------------|
                Gb|-----------------|   
                Db|-----------------|
                Ab|-----------------|
                Eb|-----------------|





Comments


Popular Taking Back Sunday tabs & chords
Im Not Gay I Wish I Were Bass Tabs
You Know How I Do Bass Tabs
A Decade Under The Influence Chords
Your Own Disaster 1 Chords
Great Romances Of The 20th Century Drum Tabs
Cute Without The E Tabs
It Doesnt Feel A Thing Like Falling Intro Tabs
Makedamnsure 3 Tabs
One-Eighty By Summer Tabs
Your Own Disaster 2 Tabs


Song lyrics



↑ Back to top | Tablatures and chords are parodies/interpretations of the original songs. You may use it for private study, scholarship, research or language learning purposes only
© 2014 AZChords.com Contact us | Privacy policy | DMCA | Add/correct tabs | Request tabs | Top 50 tabs