» » »

Poisoned Bass tabs (ver.1)

Artists:  A B C D E F G H I J K L M N O P Q R S T U V W X Y Z # 

Poisoned Bass tabs (ver.1)

Takida
Rating:
0/5 (0 votes)

Hard to play? Try these video lessons and learn fast.
                (Intro)
#####################
# Takida - Poisoned #
#####################
Anton Grahn
--------------------


I'm just gonna post the intro-part for now...

G|------17---------17------17------17----------17------17--|
D|--15------15-15------15------14------14-14-------14------|
A|---------------------------------------------------------|  2x
E|---------------------------------------------------------|

G|------10---------10------10------12---------12------12---|
D|--8-------8--8-------8-------10------10-10------10-------|
A|---------------------------------------------------------|
E|---------------------------------------------------------|

G|------17---------17---------17---------17---------17-----|
D|--15------15-15------15-15------15-15------15-15------15-|
A|---------------------------------------------------------|
E|---------------------------------------------------------|


Enjoy!
            
Hard to play? Try these video lessons and learn fast. | Correct




comments powered by Disqus
↑ Back to top | Tablatures and chords are parodies/interpretations of the original songs. You may use it for private study, scholarship, research or language learning purposes only