» » »

Takida, Halo Tabs (ver.1)

Artists:  A B C D E F G H I J K L M N O P Q R S T U V W X Y Z # 

Halo Tabs (ver.1)

Takida Tabs
Rating:
0/5 (0 votes)
Halo lessons Tabs too difficult? Try these video lessons and learn fast
                

first intro is played by bas, then comes the guitar.

first guitar:
e|----------------13^-|----------------|
b|--------------------|----------------|
g|-7x9-7x9--7---------|--7x9-7x9-7x9---| keep playing until verse
d|--------------------|----------------|
a|--------------------|----------------|
e|--------------------|----------------|

second guitar:
e|------------------------------------|
b|------------------------------------|
g|-----------5------------------------| 
d|-55-77-33--5---55-77-3--------------|
a|-55-77-33--3---55-77-3--let ring----|
e|-33-55-11------33-55-1--------------|

My heart is pounding, the blood is streaming, my friends. 
And I can't be whole again, I can't be whole again 
I'm sorry 
The poison's inside now 
My soul's not aching, I'm scared 
'cuz I will not love again, I will not love again 
Kills me inside, kills me inside 
Yeeaah 

verse:
e|------------------------------|
b|------------------------------|
g|------------------------------| 
d|-xx8xx8xx7xx7xx7h8------------|
a|------------------------------|
e|------------------------------|

1.You have a credulous mind it's not a halo 
  showing in front of your eyes 
  Yeeaah 
2.I have a devil inside, he can't say no 
  Put me to sleep and no more lies, it's over 

chorus first guitar:same as intro
e|----------------------------|
b|----------------------------|
g|--7x9-7x9-x9----------------|several times, until verse 2
d|----------------------------|
a|----------------------------|
e|----------------------------|

chorus second guitar:same as intro
1.
e|------------------------------------|
b|------------------------------------|
g|-----------5------------------------| 
d|-55-77-33--5---55-77-3--------------|
a|-55-77-33--3---55-77-3--let ring----|
e|-33-55-11------33-55-1--------------|

2.
e|--------------------------------|
b|--------------------------------|
g|-----------5--------------------| 
d|-55-77-33--5---55---------------|
a|-55-77-33--3---55---let ring----|
e|-33-55-11------33---------------|

verse 2: lyrics

The river runs red now, my friends 
and it will turn red again, it will turn red again 
Open your eyes, open your eyes 
Yeeah 

chorus:
You have a credulous mind it's not a halo 
showing in front of your eyes 
Yeeaah 
I have a devil inside, he can't say no 
Put me to sleep and no more lies, it's over 

middleplay:

1.Monday wasted, your trust will fall 
  My journey starts when the grim reapor calls. 

2.God bye to you, 
  god bye to you, 
  god by to you 
  It's over now 
1.
e|------------------------------|
b|------------------------------|
g|-4^-11/3-3/5--1--5-7----------| 
d|------------------------------|
a|------------------------------|
e|------------------------------|

2.
e|------------------------------|
b|------------------------------|
g|-5xxxxxxxxx-------------------| 
d|-5xxxxxxxxx-------------------| keep plays this middleplay until solo
a|-3xxxxxxxxx-------------------|
e|------------------------------|

solo:
e|------------------------------|
b|------------------------------|
g|------------------------------| 
d|------------------------------|under the solo plays the chorus.
a|------------------------------|
e|------------------------------|


chorus again : lyrics 
You have a credulous mind it's not a halo 
showing in front of your eyes 
Yeeaah 
I have a devil inside, he can't say no 
Put me to sleep and no ury lies, it's over 

then comes outro

outro:

There is no Halo 
There is no halo, 
My friend 

first guitar:
e|------------------------------|
b|------------------------------|
g|------------------------------| 
d|-xx8xx8xx7xx7xx7h8------------|
a|------------------------------|
e|------------------------------|

second guitar:
e|----------------------------|
b|------------------------------|
g|------------------------------| 
d|-------------------------------|
a|------------------------------|
e|------------------------------|

h hammer
x muted
^ bend up
            
Submit corrections

comments powered by Disqus
↑ Back to top | Takida Tabs for Halo. Lyrics for acoustic guitar and electric guitar. Tablatures and chords are parodies/interpretations of the original songs. You may use it for private study, scholarship, research or language learning purposes only