» » »

Takida, Dread Tabs (ver.1)

Artists:  A B C D E F G H I J K L M N O P Q R S T U V W X Y Z # 

Dread Tabs (ver.1)

Takida Tabs
Rating:
0/5 (0 votes)
Dread lessons Tabs too difficult? Try these video lessons and learn fast
                


Tuning: Standard. but u can also play in drop d but i wrote in standard tuning.
HOWOEVER here is the tab:

M=Muted

VERSE (0:00-0:29)

e|---------------------------------------------|
B|---------------------------------------------|
G|---------------------------------------------|
D|-10-10-10-7----------------------------------|
A|-10-10-10-7-LET RING-------------------------|
E|-8--8--8--5----------------------------------|
               Come on over let me show you what it really means

e|-----------------------------------------------------|
B|-----------------------------------------------------|
G|-----------------------------------------------------|
D|-10-10-10-3------------------------------------------|
A|-10-10-10-3-LET RING---------------------------------|
E|-8--8--8--1------------------------------------------|
..means.      To be frustrated sexually, to be in need

((Continiue to play these two riffs under the verse, then come the chorus:))


CHORUS (0:29-0:52)

e|------------------------------------------------------|
B|------------------------------------------------------|
G|------------------------------------------------------|
D|------------7-------10---------5--5-5-----------------|
A|------------7-------10---------5--5-5--LET RING-------|
E|------------5-------8----------3--3-3-----------------|
 Thats when love   causes the dread

e|------------------------------------------------|
B|------------------------------------------------|
G|------------------------------------------------|
D|-----------7----------10------5-----------------|
A|-----------7----------10------5--LET RING-------|
E|-----------5----------8-------3-----------------|
    Was it worth it? Anxiety grows


Coming more soon...
            

comments powered by Disqus
↑ Back to top | Takida Tabs for Dread. Lyrics for acoustic guitar and electric guitar. Tablatures and chords are parodies/interpretations of the original songs. You may use it for private study, scholarship, research or language learning purposes only