» » »

Take That, When We Were Young Tabs (ver.1)

Artists:  A B C D E F G H I J K L M N O P Q R S T U V W X Y Z # 

When We Were Young Tabs (ver.1)

Take That Tabs
Rating:
0/5 (0 votes)
Hard to play? Try these video lessons and learn fast.
                -------------------------------------------------------------------------------
-------------------------------------------------------------------------------
Message me if there are any problems! :)

Tuning: Standard (EADGBE)

e|------0-0-2-0---------------------|    
B|----3---------3-0---0-0-1-0-------|   (x2)
G|--4-------------------------0-2---|
D|----------------------------------|
A|----------------------------------|
E|----------------------------------|

e|------0-0-2-0----------3-0---2-3-------0-------------------|
B|----3---------3-0----0-----3-----1-0--------3-3-0----------|
G|--4-----------------------------------------------2-0-0----|
D|-----------------------------------------------------------|
A|-----------------------------------------------------------|
E|-----------------------------------------------------------|

Play each chord for 4 beats (1 bar, unless specified)

Verse
G G Em Em C Am Dsus4 D  x2
                                                   
Pre-chorus
C G Em D     x2

Chorus
C G Em D   x3
C Em (2 beats) D (2 beats) G

Verse
G G Em Em C Am Dsus4 D 

Pre-chorus
C G Em D  x2

Chorus
C G Em D   x3
C Em (2 beats) D (2 beats) G

Middle-8
Am Am C Em
Am Am C D D

(can incorporate intro riff into first run-through
of the final chorus)

Final Chorus
C G Em D   x5
C Em (2 beats) D (2 beats) G




Chords

  G        C         D      Em       Am   Dsus4

-3-    -0-      -2-     -0-     -0-     -3-
-3-    -1-      -3-     -0-     -1-     -3-
-0-    -0-      -2-     -0-     -2-     -2-
-0-    -2-      -0-     -2-     -2-     -0-
-2-    -3-      ---     -2-     -0-     ---
-3-    ---      ---     -0-     ---     ---


************************************

| /   slide up
| \   slide down
| h   hammer-on
| p   pull-off
| ~   vibrato
| +   harmonic
| x   Mute note
| b   Bend
| pb  Pre-bend
| br  Bend release
| pbr Pre-bend release
| brb Bend release bend

************************************
            

comments powered by Disqus
↑ Back to top | Take That Tabs for When We Were Young. Lyrics for acoustic guitar and electric guitar. Tablatures and chords are parodies/interpretations of the original songs. You may use it for private study, scholarship, research or language learning purposes only