» » »

Take That, Sos Bass tabs (ver.1)

Artists:  A B C D E F G H I J K L M N O P Q R S T U V W X Y Z # 

Sos Bass tabs (ver.1)

Take That Tabs
 Rating:
4/5 (4 votes)
Sos lessons Tabs too difficult? Try these video lessons and learn fast
                -------------------------------------------------------------------------------
-------------------------------------------------------------------------------


Tuning: Standard G D A E

-- Intro

-- Verse (0:26)

G|--------------------------------|                       G|---------------------------------|
D|--------------------------------|                       D|------------------------------666|
A|-------6-6-6-6-6-7-7-7-4-4-4-4-4|                       A|-------6-6-6-6-6-7-7-7-4-4-4-4---|
E|-4-4-4--------------------------| x3 Then on 4th time   E|-4-4-4---------------------------|

-- Pre-chorus (0:53)

G|----------------------------------------------------------------|
D|---------------------------------------------------------4-4-4-4|
A|-7-7-7-7-7-7-7-7-6-6-6-6---------7-7-7-7-7-7-7-7-6-6-6-6--------|
E|-------------------------4-4-4-4--------------------------------|

-- Chorus x2 (1:06)

G|--------------------------------|
D|--------------------------------|
A|---------2-2-2-2-4-4-4-4-7-7-7-7|
E|-4-4-4-4------------------------|

-- Chorus exit and verse 2 (1:19)

G|--------------------------------|                       G|---------------------------------|
D|--------------------------------|                       D|------------------------------666|
A|-------6-6-6-6-6-7-7-7-4-4-4-4-4|                       A|-------6-6-6-6-6-7-7-7-4-4-4-4---|
E|-4-4-4--------------------------| x4 Then on 5th time   E|-4-4-4---------------------------|
(Listen to song for timings)

Then play:

-Pre-chorus
-Chorus x4

-- Middle eight (2:32)

SLIGHTLY EASIER METHOD:

G|---------|
D|---------|
A|--6-6-6-6|
E|-4-4-4-4-| x6 fading out, then no bass

SLIGHTLY HARDER METHOD:

G|---------------------------------|
D|-----66------66------66------66--|
A|---66--66--66--66--66--66--66--66|
E|-44------44------44------44------| x6

Then play chorus x4

===============================================================================
            
Submit corrections

comments powered by Disqus
↑ Back to top | Take That Bass for Sos. Lyrics for acoustic guitar and electric guitar. Tablatures and chords are parodies/interpretations of the original songs. You may use it for private study, scholarship, research or language learning purposes only