» » »

When Our Eyes Met Tabs (ver.1)

Artists:  A B C D E F G H I J K L M N O P Q R S T U V W X Y Z # 

When Our Eyes Met Tabs (ver.1)

Taken Off The Menu
Rating:
0/5 (0 votes)

Tabs too difficult? Try these video lessons and learn fast.
                Intro

e----------------------------------------------------------------------------------
B----------------------------------------------------------------------------------
G-------------9--77777777777----------------------------------------------
D--9999999999-9--77777777777-7-55555555555---7--44444444444------
A--9999999999-7--55555555555-7--55555555555--7--44444444444------
E--7777777777----------------5--33333333333--5--22222222222-----
      **** ***         **** ***          **** ***          **** ***

e----------------------------------------------------------------------------------
B----------------------------------------------------------------------------------
G-------------9--77777777777----------------------------------------------
D--9999999999-9--77777777777-7-55555555555-----44444444444------
A--9999999999-7--55555555555-7--55555555555----44444444444------
E--7777777777----------------5--33333333333----22222222222-----
      **** ***         **** ***          **** ***        

Verse

e-----------------------------------
B-----------------------------------
G---------7777-------------------
D--9999---7777--5555--4444----
A--9999---5555--5555--4444----
E--7777---------3333--2222----


Chorus

e-----------------------------------
B-----------------------------------
G--------------7777------------
D--9999--5555--7777--7777-----
A--9999--5555--5555--7777-----
E--7777--3333--------5555-----


Another great song by South Africas best punk band
            
Tabs too difficult? Try these video lessons and learn fast.


comments powered by Disqus
↑ Back to top | Tablatures and chords are parodies/interpretations of the original songs. You may use it for private study, scholarship, research or language learning purposes only