» » »

Taken Off The Menu, Molly Tabs (ver.1)

Artists:  A B C D E F G H I J K L M N O P Q R S T U V W X Y Z # 

Molly Tabs (ver.1)

Taken Off The Menu Tabs
 Rating:
4/5 (4 votes)
Molly lessons Tabs too difficult? Try these video lessons and learn fast
1
                Intro

 e----------------------------------------------------------------
B-----------------------------------------------------------------
G-----------------------------------------------------------------
D--------444555--------444555--------444555--------444555---------
A-----------------222-----------333-----------555-----------------
E---333-----------------------------------------------------------


Break

e-----------------------------------
B-----------------------------------
G-----44-55-77-------------------
D--55-44-55-77--------------------
A--55-22-33-55-------------------
E--33-----------------------------



Verse 

e-----------------------------------
B------------------------------------
G-----------4444--5555-7777----
D----5555--4444--5555--7777---
A----5555--2222--3333--5555---
E----3333--------------------------


Pre - Chorus

e-----------------------------------
B-----------------------------------
G---------------5555--7777---------
D---5555--2222--5555--7777---------
A---5555--2222--3333--5555---------
E---3333--0000---------------------


CHorus

e-----------------------------------
B-----------------------------------
G--5555--------------7777-----------
D--5555--5555--2222--7777----------
A--3333--5555--2222--5555------------
E--------3333--0000-----------------

Thats it very easy and a great song
            
Submit corrections

comments powered by Disqus
↑ Back to top | Taken Off The Menu Tabs for Molly. Lyrics for acoustic guitar and electric guitar. 1 Tablatures and chords are parodies/interpretations of the original songs. You may use it for private study, scholarship, research or language learning purposes only